Song name
# A B C D E F G H I J K L M N O P Q R S T U V W X Y Z

Masked Intruder - Stick Em Up tab

Stick 'Em Up

Verse
e|-----------------|
B|-----------------|
G|-----------------|
D|-7-7-7--9--------|
A|-7-7-7--9--------|
E|-5-5-5--7--------|

Chorus One
e|-------------------------|
B|-------------------------|
G|-------------------------|
D|--5-------7--------------|
A|--5-x16---7-x16----------|
E|--3-------5--------------|

Chorus Two
e|--------------------------------------|
B|--------------------------------------|
G|--------7--------7--------------------|
D|-9------7--7-----7--9-----------------|
A|-9-x15--5--7-x7--5--9-x8--------------|
E|-7---------5--------7-----------------|

Solo
e|-----------------|  --------7--------|  -------------------|  --------------7--|  SOLO Parts:
B|---7---7---7---7-|  ----7-----10-p-7-|  ----7-10p9p7-------|  ---7-10p9p7------|      1 - 2
G|-9b--9b--9b--9b--|  --9b--9----------|  --9b----------9-7--|  -9b---------9----|      1 - 3
D|-----------------|  -----------------|  -------------------|  -----------------|      1 - 2
A|-----------------|  -----------------|  -------------------|  -----------------|      1 - 4
E|-----------------|  -----------------|  -------------------|  -----------------|
           part 1               part 2          part 3          part 4



Intro (no guitars)
Verse x8
Chorus One x2
Chorus Two x2
Verse x10 (Bridge is the same as 2 verses)
Chorus Two x2
"One More Time"
Chorus Two x2 and Solo
Tap to rate this tab
 
# A B C D E F G H I J K L M N O P Q R S T U V W X Y Z