Guitaretab - guitar tabs
Song name
# A B C D E F G H I J K L M N O P Q R S T U V W X Y Z

Mason Jennings - Ulysses tab

ulysses
By mason Jennings
Tab by gavin wahl-stephens
Album: use you voice

Tune half step down

Intro/verse

       Am          C              G             C    few light strums
-------0-----------0--------------2-------------0----------------------|
-------1-----------1--------------2-------------1----------------------|
-------2-----------0--------------0-------------0----------------------|
---2---2--0-1-2----2--2-1-0-------0--0-2-----2-------------------------|
-0---------------3----------------2--------3---------------------------|
-------------------------------3---------------------------------------|

Chorus
[ Tab from: http://www.guitaretab.com/m/mason-jennings/133833.html ]
Am              C                          G
-------------------0-----------------------------------|
-----1-----------1----------------0---1---1------------|
---2------2--------------0------0---0---0------0-------|
-------------------------------------------------------|
-0------0------3------3----------------------0---------|
-----------------------------3-------------------------|


Am                C                          G
-------------------0-----------------------------------|
-----1-----------1----------------0---1-------2-0------|
---2------2--------------0------0---0-----0-2-----2-1--|
-------------------------------------------------------|
-0------0------3------3--------------------------------|
-----------------------------3-------------------------|

To get the timing just listen to the song it is pretty easy to hear and the rhythm is uniform.

Am- x01220
C- x32010
G- 320022

Intro 4X
Verse
Intro riff
Verse
Chorus
Verse
Chorus 2x
Verse
Chorus 2x
Related for Ulysses tab
Advertisement will be closed in 10 seconds