Guitaretab - guitar tabs
Song name
# A B C D E F G H I J K L M N O P Q R S T U V W X Y Z

Mason Jennings - Better Than That tab

Artist-Mason Jennings
Song-Better Than That

I havent been able to find tabs for this song anywhere so it is
[ Tab from: http://www.guitaretab.com/m/mason-jennings/171154.html ]
E----3------3-------------3------3---------------------------|
A-3------3------------3------3-------------------------------|
D---2--2---2--0-1h2------2--2---2--0-1h2---------------------|
G---0--0---0-------------0--0---0----------------------------|
B---1--1---1-------------1--1---1----------------------------|
e------------------------------------------------------------|

E----3------3------------------------------------------------|
A-3------3---------------------------------------------------|
D---2--2---2--0-1h2--0h1h20h1h2-0h1h2-0h1h2-0----------------|
G---0--0---0-------------------------------------------------|
B---1--1---1-------------------------------------------------|
e------------------------------------------------------------|
Related for Better Than That tab
Better Than That chords by Mason Jennings