Song name
# A B C D E F G H I J K L M N O P Q R S T U V W X Y Z

Mason Jennings - Something About Your Love chords

Highlighted       Show chord diagrams
VERSE
          G                 C
Ain't no modern love gonna set me free
         G                   C
Like the kinda love that you give to me
     Am             D7
I'm coming home to be with you
    Am              D7
I'm coming home to be with you

CHORUS
G                     C       
Something about your love, oh
G                     C
Something about your love
G                     C
Something about your love, oh
G                     C
Something about your love


This whole wide world goes in and out of style
All I want is to see you smile
I'm coming home to be with you
I'm coming home to be with you

-CHORUS-

as all the shiny things in the window fade
All that's real is the love we made
I'm coming home to be with you
I'm coming home to be with you

-CHORUS-


Guitar part after a couple of the choruses.  not perfect but a decent idea
e|-3--------2--------0-----------------------0-x-0-----0------------------|
B|---0--------0--------0------3--------------1-x-1-------3-1p0------------|
G|-----0--------0--------0------0------------0-x-0------------2p0---------|
D|--------------------------------0----------2-x-2------------------------|
A|-----------------------------------------3-3-x-3------------------------|
E|-3-----3--3-----3--3-----3--3-----3-------------------------------------|
                                 
e|-3--------2--------0-----------------------0-x-0------------------------|
B|---0--------0--------0------3--------------1-x-1---------1p0------------|
G|-----0--------0--------0------0------------0-x-0------------2p0---------|
D|--------------------------------0----------2-x-2-----0h2----------------|
A|-----------------------------------------3-3-x-3------------------------|
E|-3-----3--3-----3--3-----3--3-----3-------------------------------------|
Tap to rate this tab
 
# A B C D E F G H I J K L M N O P Q R S T U V W X Y Z