Mason Jennings - The Light tab

------------------------------------------------
The Light - Mason Jennings
tabbed by wantobeready_34@yahoo.com
hosted at birdwingsbeat.com
------------------------------------------------


[tune down half a step]

Intro
e--------------------------------------------------|
b--------------------------------------------------|
G-----------------------6-6-7----------------------|
D-----------------------------4----------5--4------|
A--5-5-5-5-5-5-5-5-5------------------7---------5--|
E----------------------------------5---------------|

(repeat a couple times)


Verse 1
G(i)       D(i)       G(i)    D(i)
So glad, I found you, God is around you

G(ii)     D(ii)    G         A      D
Always about you, shines with the light





Verse 2
G(i)        D(i)       G(i)        D(i)
Love won't, deny you, love won't confine you

G(ii)           D(ii)    G          A    D
Three words, inside you, shines with the light


Outro
e---2-----2-2-2--2-2-3--------1-1-1----0-0-0---------------|
b---3-----3-3-3--3-3-3--------0-0-0----2-2-2---------------|
G---2-----2-2-2--2-2-2--------1-1-1----0-0-0---------------|
D---x-----x-x-x--x-x-x--------x-x-x----x-x-x---------------|
A---x-----x-x-x--x-x-x--------x-x-x----x-x-x---------------|
E---x-----x-x-x--x-x-x--------x-x-x----x-x-x---------------|

	The Light....

(just keep repeating this several times and end on the D chord)

Verse Chords
e---------------------------------------|
b---------------------------------------|
G---4-----------------------------------|
D---5------4--------5-------------------|
A---5------5--------2---------5---------|
E----------5------------------2---------|

    G(i)   D(i)	  G(ii)	    D(ii)

------------------------------------------------
The Light - Mason Jennings
tabbed by wantobeready_34@yahoo.com
hosted at birdwingsbeat.com
------------------------------------------------
Tap to rate this tab
 
# A B C D E F G H I J K L M N O P Q R S T U V W X Y Z