Song name
# A B C D E F G H I J K L M N O P Q R S T U V W X Y Z

Mason Jennings - January tab

Mason Jennings
January
Tabbed by George O.


Ok, here is a tab off Masonís newest album, The Flood. Itís not perfect, but itís 
I donít have the patience to tab it out perfectly right nowÖ Please comment with any suggestions!
Like most of Masonís songs, this one is tuned 1/2 step down.


Beginning:

Eb|-------------------------------------|
Bb|-------------------------------------|
Gb|----------------------------5-4--2---|	X6
Db|-5-----4ó--5---4540--5----4-------5--|
Ab|-5-----5-------------7----5----------|
Eb|-3-----3-------------8----3----------|

I awoke in the evening
I was thinking bout you
God knows your neighbors
			  D
But honey I know you

C                     	     G
I just love the way you lay me down
    C                                     D
The sweetest days are those weíve not yet found
D					  D7
I took the corner with you by my side and
C        G         C      G
You were young but I was younger
C        G        F      E
You were new and I was worn
C          G         C           G
I knew your face and I knew your number
C          G         F	     E
Iíve known you since you were born and
F
Grace hallelujah rang down from the heavens and you
F
Took my hand and held it as we walked together
F
And sweet glory on the day
F
That I fell in love with you


(Repeat beginning riff)
I was goin to Minnesota
I was on my way
I had made a promise
That I wouldnít stay

But I just found all that I need
The open road became her open arms
I held on I held on I held on

You were young but I was younger
You were new and I was worn
I knew your face and I knew your number
Iíve known you since you were born and
You were young but I was younger
You were new and I was worn
I knew your face and I knew your number
Iíve known you since you were born and

Grace hallelujah rang down from the heavens
Took my hand and held it as we walked together
And sweet glory on the day that I fell in love with you


End Picking (barre chords)
    G       D       C       D
Eb|---3--------------------------------|
Bb|-----3-----7-------5-------7--------|
Gb|-------4-----7-------5-------7------|	X3
Db|---------------7-------5-------7----|
Ab|---------5-------3-------5----------|
Eb|-3----------------------------------|

    G       D       C       D		  G
Eb|---3-----------------------------------3-|
Bb|-----3-----7-------5-------7----------3--|
Gb|-------4-----7-------5-------7-------4---|
Db|---------------7-------5-------7----5----|
Ab|---------5-------3-------5---------5-----|
Eb|-3--------------------------------3------|


OR End Picking (open chords)

   G        D       C       D
Eb|---3-------2-------0-------2--------|
Bb|-----3-0-----3-------1-------3------|
Gb|---------------2-------0-------2----|	X3
Db|---------0---------------0----------|
Ab|-----------------3------------------|
Eb|-3----------------------------------|
    1 e & a 2 e & a 3 e & a 4 e & a

   G        D       C       D       G
Eb|---3-------2-------0-------2----------3-|
Bb|-----3-0-----3-------1-------3-------3--|
Gb|---------------2-------0-------2----0---|
Db|---------0---------------0---------0----|
Ab|-----------------3----------------2-----|
Eb|-3-------------------------------3------|
    1 e & a 2 e & a 3 e & a 4 e & a 1
Tap to rate this tab
 
# A B C D E F G H I J K L M N O P Q R S T U V W X Y Z