Song name
# A B C D E F G H I J K L M N O P Q R S T U V W X Y Z

Mason Musso - Give It To Me tab

The intro part.. [acoustic]
e----2-------------|
G------3-----------|
B------0-----------|   [16x]
D-------0----------|
A------------------|
E------------------|

e-----2---------|
G-----2---------|
B-----2---------|      [16x]
D---------------|
A---------------|
E---------------|

* ready?? ready?? Hey!

e------12-14-12-10-7-5----12-14-12-10-7-5-| [play 4x]
G-----------------------------------------|
B-----------------------------------------|
D-----------------------------------------|
A-----------------------------------------|
E-----------------------------------------|

[play as needed]
end with:
e----5--------|
G-------------|
B-------------|
D-------------|
A-------------|
E-------------|

Verse:
e---------------------------|
G---------------------------|
B---------------------------|
D---------------------------|
A-0----0------5------5------|   [2x]

[chorus: play intro]


* hey guys! i know there is NO tab whatsoever for this song but it's so awesome.
please listen to it and learn to play it..

i did this by ear so.... yea

:)

http://profile.myspace.com/index.cfm?fuseaction=user.viewprofile&friendid=34594735
Tap to rate this tab
# A B C D E F G H I J K L M N O P Q R S T U V W X Y Z