Song name
# A B C D E F G H I J K L M N O P Q R S T U V W X Y Z

Mason Williams - Classical Gas tab

                                Classical Gas                                   


                                                                  Williams Mason
Classical Guitar


especially the fast parts are as easy as possible.


     Intro                                                               
                        ^                ^                 ^             
     Q     Q    Q       H        Q       Q    E  Q.        H.            
E||------------------|----------------|-----------------|---------------|
B||--1----------1----|--0-------------|--0--------------|---------------|
G||--------2---------|--0-------------|--0----2--0------|--2------------|
D||------------------|----------------|-----------------|--2------------|
A||--0---------------|----------------|-----------------|--0------------|
E||------------------|--3--------2----|--0--------------|---------------|


                        ^                ^                     ^             
    Q    Q      Q       H        Q       Q    E  E    E  E     H.            
---------------------|----------------|---------------------|---------------|
--0g1---------0g1----|--0-------------|--0---------------0--|---------------|
----2----2-----------|--0-------------|--0----2--0--0g2-----|--2------------|
---------------------|----------------|---------------------|--2------------|
----0----------------|----------------|---------------------|--0------------|
---------------------|--3--------2----|--0------------------|---------------|


  |--3--|  |--3--|  |--3--|                                                 
  E  E  E  E  E  E  E  E  E     Q    E  E  Q    Q       E  E  H.            
-----------------------------|--0--------------------|---------------------|
-----------------1--------3--|----------3--1----3----|-----1--0------------|
--------0-----2--------0-----|-------0-----2---------|---------------------|
-----0-----------------------|-----------------------|--2------------------|
-----------0--------2--------|--3--------------------|---------------------|
--3--------------------------|-----------------------|---------------------|


                                            Part A                          
  W                   W                     S      S  E  E  E  E  E  E  E   
-------------------|-------------------||----------------------------------|
-------------------|-------------------||---0h-----1p-0--1--------1-----0--|
-------------------|-------------------||*------------------2--------------|
-------------------|-------------------||*---------------------------2-----|
-------------------|-------------------||---0------------------0-----------|
-------------------|-------------------||----------------------------------|


  E  E  E  E  E  E  E  E     E  E  E  E  E  E  E  E   
--------------------------|--------------------------|
--------------------------|--0--------------0--------|
--------0--------0--------|-----2--0--2-----------2--|
-----0--------0--------0--|--------------------------|
--------------------------|--------------------------|
--3--------2--------0-----|--0-----------0-----0-----|


  E  E  E  E  E  E  E  E       E  E  E  E  E  E  E  E   
---------------------------||--------------------------|
---------------------------||-----------0--------0--1--|
--------2--------2--------*||--------2--------0--------|
-----2--------2--------2--*||-----2--------------------|
--0--------0--------0------||--0-----------------------|
---------------------------||--------------3-----------|


  E  E  E  E  E  E  E  E     Q    E  E  Q    Q    E  E   Q     
--------------------------|--0--------------------------------|
--------1--------3--------|----------3--1----3-------1p--0----|
-----2--------0--------0--|-------0-----2----------------0----|
--------------------------|-----------------------2-----------|
--0--------2--------2-----|--3--------------------------------|
--------------------------|-----------------------------------|


  Q.     E  E  Q    E     E  E  E  E  E  E  E  E     E  E  E  E  E  E  E  E   
-----------------------|--------------------------|--------------------------|
-----------------------|-----------0--------0--1--|--------1--------3--------|
--2------0--2--2----0--|--2-----2--------0--------|-----2--------0--------0--|
------------2----------|-----2--------------------|--------------------------|
-----------------------|--0-----------------------|--0--------2--------2-----|
--1---------0----------|--------------3-----------|--------------------------|


  E  E  E  E  E  E     E  E  E  E  E  E     E  E  S  S E  E  E   
--0--------1--------|--2--------3--------|--4-----5p-0----7-----|
-----1--------1-----|-----1--------0-----|-----0-------0-----0--|
--------0--------2--|--------2--------0--|----------------------|
--------------------|--0-----------------|----------------------|
--3-----------------|--------------------|----------------------|
-----------1--------|-----------3--------|--0-------------------|


  Part B                                                  
  E      E  E  E  E  E  E  E     E  E  E  E  E  E  E  E   
--8------7--5--------5--------|-----5--------5--------7--|
--5------------8-----------7--|--------7--------5--------|
------------------------------|--------------------------|
------------------------------|--0--------0--------------|
--0---------------------------|--------------------------|
------------------0-----0-----|--------------------------|


  Part B                                                      
                                         NH      NH     NH    
  E      E  E  E  E  E  E  E     E  E    Q       Q      Q     
--8------7--5--------5--------|------------------------------|
--5------------8-----------7--|--------<>7----<>12----<>7----|
------------------------------|--------<>7----<>12----<>7----|
------------------------------|------------------------------|
--0---------------------------|--0--0------------------------|
------------------0-----0-----|------------------------------|


  Part B                                                  
  E      E  E  E  E  E  E  E     E  E  E  E  E  E  E  E   
--8------7--5--------5--------|-----8--5--------5--------|
--5------------8-----------7--|--------------8-----------|
------------------------------|--------------------------|
------------------------------|--0--------0--------------|
--0---------------------------|--------------------------|
------------------0-----0-----|--------------------------|


  E  Q    E  Q    E  Q    E  Q       E  Q    E  Q    E  Q    E  Q     
-----3-------0-------1------------|-----0-------0-------0-------0----|
-----0-------1-------1-------3----|-----3-------3-------3-------3----|
-----0-------0-------2-------3----|-----2-------2-------2-------2----|
-----0-------2-------3----3--3----|----------------------------------|
-----2-------3----3--3------------|--0-------0-------0-------0-------|
--3--3----0--0--------------------|----------------------------------|


  E  E  E  E  E  E  Q       E  E  E  E  E  E   Q     
-----0--------0----------|--L--0--------0-----------|
--------3--------3-------|--------3--------3h-------|
-----------2--------2----|-----------2---------2----|
--3----------------------|--3-----------------------|
-------------------------|--------------------------|
-------------------------|--------------------------|


  Part C                                                     
  S      S  E  E  E  E  E  E  E     E  E  E  E  E  E  E  E   
---------------------------------|--------------------------|
--0h-----1p-0--------0--------3--|--------1--------0--------|
---------------2--------2--------|--2--------2--------2-----|
------------------2--------2-----|-----2--------2--------2--|
--0------------------------------|--------------------------|
---------------------------------|--------------------------|


  S  S  E  E  E  E  E  E  E     E  E  E  E  E  E  E  E   
-----------------------------|--------------------------|
--0h-1p-0--------0--------1--|--------0--------0--------|
-----------2--------2--------|--2--------2--------2-----|
--------------2--------2-----|-----2--------2--------2--|
--0--------------------------|--------------------------|
-----------------------------|--------------------------|


  S  S  E  E  E  E  E  E  E     E  E  E  E  E  E  E  E   
-----------------------------|-----------------0--------|
--0h-1p-0--------1--------3--|--------3-----------------|
-----------2--------2--------|--2--------2--------2-----|
--------------2--------2-----|-----2--------2--------2--|
--0--------------------------|-----------------0--------|
-----------------------------|--------------------------|


  E  E  E  E  E  E  E  E     E  E  E  E  E  E  E  E   
--------------------------|--------------------------|
--3--------1--------0-----|-----0-----------0--1--3--|
-----2--------2--------2--|--------2-----2-----------|
--------2--------2--------|--2--------2--------------|
--------------------------|-----0--------------------|
--------------------------|--------------------------|


  E  E  E  E  E  E  E  E     E  E  E  E  E   E  E  E   
--0-----0-----------------|--------------1p--0--------|
-----3-----1--------1--0--|--------3------------3-----|
-----------------0--------|-----0-----0------------0--|
--------------------------|---------------------------|
--3-----------3-----------|--2-----------2------------|
--------------------------|---------------------------|


  E  E  E  E  E  E  E  E     E  E  E  E  E   E  E  E   
--0-----0-----------------|--------------1p--0--------|
-----3-----1--------1--0--|--------3------------3-----|
-----------------2--------|-----0-----0------------0--|
--------------------------|---------------------------|
--0-----------0-----------|---------------------------|
--------------------------|--3-----------3------------|


  E  E  E  E  E  E  E  E     E  E  E  E  E   E  E  E   
--0-----0-----------------|--------------1p--0--------|
-----3-----1--------1--0--|--------3------------3-----|
-----------------0--------|-----0-----0------------0--|
--------------------------|---------------------------|
--3-----------3-----------|--2-----------2------------|
--------------------------|---------------------------|


  E  E  E  E  E  E  E  E     E  E  E  E  E  E  E  E   
--0-----0-----------------|--------------------------|
-----3-----1--------1--0--|--------------------------|
-----------------2--------|--------0--------0--------|
--------------------------|-----0--------0--------0--|
--0-----------0-----------|--------------------------|
--------------------------|--3--------2--------0-----|


  E  E  E  E  E  E  E  E     E  E  E  E  E  E  E  E   
--------------------------|--------------------------|
--0--------------0--------|--------0-----1-----3-----|
-----2--0--2-----0-----0--|--2--------0-----0-----0--|
--------------------------|-----2--------------------|
--------------------------|--0-----------0-----2-----|
--0-----------0-----0-----|--------3-----------------|


  E  E  E  E  E  E  E  E     E  E    E  E  E  E   
--0-----1-----2-----3-----|--4-----5g0-----7-----|
-----------------------0--|-----0-------0-----0--|
-----0-----2-----2--------|----------------------|
--------------0-----------|----------------------|
--3-----------------------|----------------------|
--------1-----------3-----|--0-------0-----0-----|


  Part B                                                  
  E      E  E  E  E  E  E  E     E  E  E  E  E  E  E  E   
--8------7--5--------5--------|-----5--------5--------7--|
--5------------8-----------7--|--------7--------5--------|
------------------------------|--------------------------|
------------------------------|--0--------0--------------|
--0---------------------------|--------------------------|
------------------0-----0-----|--------------------------|


  Part B                                                      
                                         NH      NH     NH    
  E      E  E  E  E  E  E  E     E  E    Q       Q      Q     
--8------7--5--------5--------|------------------------------|
--5------------8-----------7--|--------<>7----<>12----<>7----|
------------------------------|--------<>7----<>12----<>7----|
------------------------------|------------------------------|
--0---------------------------|--0--0------------------------|
------------------0-----0-----|------------------------------|


  Part B                                                  
  E      E  E  E  E  E  E  E     E  E  E  E  E  E  E  E   
--8------7--5--------5--------|-----8--5--------5--------|
--5------------8-----------7--|--------------8-----------|
------------------------------|--------------------------|
------------------------------|--0--------0--------------|
--0---------------------------|--------------------------|
------------------0-----0-----|--------------------------|


  E  Q    E  Q    E  Q    E  Q       E  Q    E  Q    E  Q    E  Q     
-----3-------0-------1------------|-----0-------0-------0-------0----|
-----0-------1-------1-------3----|-----3-------3-------3-------3----|
-----0-------0-------2-------3----|-----2-------2-------2-------2----|
-----0-------2----3--3----3--3----|----------------------------------|
--2--2----3--3----3--3------------|--0-------0-------0-------0-------|
--3--3----0--0--------------------|----------------------------------|


                               Part A2                          
        |--3--|                                                 
  E  E  E  E  E  H             S       S  E  E  E  E  E  E  E   
--------0-----------------||-----------------------------------|
-----------3--------------||---0h------1p-0--1--------1-----0--|
--------------2-----------||*-------------------2--------------|
-----3-----------3--------||*----------------------------2-----|
--0-----------------------||---0-------------------0-----------|
--------------------------||-----------------------------------|


  E  E  E  E  E  E  E  E     E  E  E  E  E  E  E  E   
--------------------------|--------------------------|
--------------------------|--0--------------0--------|
--------0--------0--------|-----2--0--2-----------2--|
-----0--------0--------0--|--------------------------|
--------------------------|--------------------------|
--3--------2--------0-----|--0-----------0-----0-----|


  E  E  E  E  E  E  E  E       E  E  E  E  E  E  E  E   
---------------------------||--------------------------|
---------------------------||-----------0--------0--1--|
--------2--------2--------*||--------2--------0--------|
-----2--------2--------2--*||-----2--------------------|
--0--------0--------0------||--0-----------------------|
---------------------------||--------------3-----------|


  E  E  E  E  E  E  E  E     Q    E  E  Q    Q    E   E   Q     
--------------------------|--0---------------------------------|
--------1--------3--------|----------3--1----3--------1p--0----|
-----2--------0--------0--|-------0-----2----------------------|
--------------------------|-----------------------2p------0----|
--0--------2--------2-----|--3---------------------------------|
--------------------------|------------------------------------|


  Q.     E  E  Q    E     E  E  E  E  E  E  E  E     E  E  E  E  E  E  E  E   
-----------------------|--------------------------|--0-----1-----2-----3-----|
-----------------------|--------0-----1-----3-----|-----------------------0--|
--2------0--2--2----0--|--2--------0-----0-----0--|-----0-----2-----2--------|
------------2--2-------|-----2--------------------|--------------0-----------|
-----------------------|--0-----------0-----2-----|--3-----------------------|
--1---------0----------|--------3-----------------|--------1-----------3-----|


  E  E    E  E  E  E     E  Q    E  Q    E  Q    E  Q       E  E  E  E  E  E   
--4-----5g0-----7--5--|-----3-------0-------1------------|--0--------0--------|
-----0-------0--------|-----0-------1-------1-------3----|-----3--------3-----|
----------------------|-----0-------0-------2-------3----|--------2--------2--|
----------------------|-----0-------2-------3----3--3----|--------------------|
----------------------|-----2-------3----3--3------------|--------------------|
--0-------0-----0-----|--3--3----0--0--------------------|--------------------|


  E  Q    Q    Q    E     E  Q    E  E  E  E  E     E  Q    Q    Q    E   
--------------------0--|--L----------------------|--------------------0--|
---------------3-------|-----3-------------3-----|---------------3-------|
----------2------------|----------2-----2-----0--|----------2------------|
-----3-----------------|-------------3-----------|-----4-----------------|
--0--------------------|-------------------------|--0--------------------|
-----------------------|-------------------------|-----------------------|


                                |---3---|                                 
  E  Q    E  E  E  Q       Q    E  E    E  H           W                  
--L---------------------|---------------------------|-------------------||
-----3-------------3----|-------------2g0--2--------|--L----------------||
----------2-----2-------|----------2----------------|-------------------||
-------------4----------|-------2-------------------|-------------------||
------------------------|--0------------------------|-------------------||
------------------------|---------------------------|-------------------||




Duration Legend
---------------
W - whole
H - half
Q - quarter
E - 8th
S - 16th
T - 32nd
X - 64th
. - note dotted
|-n-|  - n-tuplets


Tablature Legend
----------------
L - tied note
x - dead note
g - grace note
(n) - ghost note
> - accentuded note
NH - natural harmonic
AH - artificial harmonic
TH - tapped harmonic
SH - semi harmonic
PH - pitch harmonic
h - hammer on
p - pull off
b - bend
br - bendRelease
pb - preBend
pbr - preBendRelease
brb - bendReleaseBend
\n/ - tremolo bar dip
\n - tremolo bar dive
-/n - tremolo bar Release up
/n\ - tremolo bar inverted dip
/n - tremolo bar return
-\n - tremolo bar Release down
S - shift slide
s - legato slide
/ -  slide into from below or out of upwards
\ -  slide into from above or out of downwards
~ - vibrato
W - wide vibrato
tr - trill
TP - tremolo picking
T - tapping
S - slap
P - pop
< - fade in
^ - brush up
v - brush down
Tap to rate this tab
 
# A B C D E F G H I J K L M N O P Q R S T U V W X Y Z