Song name
# A B C D E F G H I J K L M N O P Q R S T U V W X Y Z

Massacra - Seas Of Blood tab

http://www.myspace.com/massacra1986
label: shark

Tuning: Half-Step down (Eb Ab Db Gb Bb eb)

|------------------|
|------------------|
|------------------|
|------------------|
|--------4-3---5-4-|
|--3-4-2-----3-----|

|----------|
|----------|
|----------|
|----------|
|--5---4---|
|--3---2---| x2

Main Riff:

|-----------------------------------|
|-----------------------------------|
|-----------------------------------|
|-----------------------------------|
|----5-4---6-5-------4-3---6-5------|
|--3-----3-----3-4-2-----2-----3-2--| x3

|----------|
|----------|
|----------|
|----------|
|--5---4---|
|--3---2---| x2

|-----------------------------------|
|-----------------------------------|
|-----------------------------------|
|-----------------------------------|
|----5-4---6-5-------4-3---6-5------|
|--3-----3-----3-4-2-----2-----3-2--| x2

|----------|
|----------|
|----------|
|----------|
|--5---4---|
|--3---2---| x2

|-----------------------------------|
|-----------------------------------|
|-----------------------------------|
|-----------------------------------|
|----5-4---6-5-------4-3---6-5------|
|--3-----3-----3-4-2-----2-----3-2--| x1

Riff C:

|--------------------------------|
|--------------------------------|
|--------------------------------|
|--------------------------------|
|(6--3----------------0TP--------|
|(4)-1-00-0-0-0-0-(x3)---1TP-4TP-|

|---------------------------------------|
|---------------------------------------|
|-------------------------------2tr3----|
|-------------------2-1-1-3-2-2---------|
|--3------------------------------------|
|--1-00-0-0-0-0-(x3)--------------------|

repeat Riff C

|-------------------------|
|-------------------------|
|-------------------------|
|------------------7------|
|--3--------2------7------|
|--1-00-0-0-0--(x2)5--3-1-| x4

Riff D:

|--------------------|
|--------------------|
|--------------------|
|--------------------|
|--4----4---3----3---|
|--2-22-2-0-1-11-1-0-|

|--------------------|
|--------------------|
|--------------------|
|--------------------|
|--4----4---3--------|
|--2-22-2-0-1--------|

Riff D2:

then you use the same frets as the previous riff but a different picking pattern (you'll hear it)

with this palm muted thingy in between
|------------------|
|------------------|
|------------------|
|--7-6-7-6---------|
|--5-4-5-4-8-7-8-7-|
|----------6-5-6-5-|

back to Main Riff

then 'Riff D2' again. Again, listen for the exact picking pattern.

END
Tap to rate this tab
# A B C D E F G H I J K L M N O P Q R S T U V W X Y Z