Song name
# A B C D E F G H I J K L M N O P Q R S T U V W X Y Z

Massacration - The Big Heavy Metal tab

Music: The Big Heavy Metal
Band: Massacration
Album: Good Blood Headbanguers
Year: 2009
To hear: http://www.youtube.com/watch?v=2WIx--gDqYw
Tabbed by: Peixefbpa

Tuning: Standard

The riffs sounds like Iron Man (Black Sabbath)

e|---------------------------------------------|
B|---------------------------------------------|
G|---------------------------------------------|
D|-------9/8-9-11--13-11--9--8-----------------|
A|-6--9--7/6-7--9--11--9--7--6--9--11---9/11-4-|
E|-4--7-------------------------7---9---7/9--2-|

e|------------------------------------|
B|------------------------------------|
G|------------------------------------|
D|-------9-8/9\-----------------------|
A|-6--9--7-6/7\---9/11\--9/11--9/11-4-|
E|-4--7-----------7/9\---7/9---7/9--2-|

e|------------------------------------|
B|------------------------------------|
G|------------------------------------|
D|-8-8-8-8-8--------------------------|
A|-6-6-6-6-6----------6-6-6-6---------|
E|-----------7-7-6-4~-4-4-4-4-2-2-0h2-|

Enjoy!

************************************

| /   slide up
| \   slide down
| h   hammer-on
| p   pull-off
| ~   vibrato
| +   harmonic
| x   Mute note
| b   Bend
| pb  Pre-bend
| br  Bend release
| pbr Pre-bend release
| brb Bend release bend

************************************
Tap to rate this tab
 
# A B C D E F G H I J K L M N O P Q R S T U V W X Y Z