Song name
# A B C D E F G H I J K L M N O P Q R S T U V W X Y Z

Massive Attack - Bullet Boy tab

Massive Attack - Bullet Boy (Intro)

e|--5-----4-----5-----4-----5-----4-----5-----4-----|
B|-----3-----3-----3-----3-----3-----3-----3-----3--|
G|--------------------------------------------------|
D|--------------------------------------------------|
A|--------------------------------------------------|
E|--------------------------------------------------|

e|--5-----4-----5-----4-----5-----4-----5-----4-----|
B|-----2-----2-----2-----2-----2-----2-----2-----2--|
G|--------------------------------------------------|
D|--------------------------------------------------|
A|--------------------------------------------------|
E|--------------------------------------------------|
Tap to rate this tab
 
# A B C D E F G H I J K L M N O P Q R S T U V W X Y Z