Song name
# A B C D E F G H I J K L M N O P Q R S T U V W X Y Z

Massive Attack - Paradise Circus tab

-------------------------------------------------------------------------------
                             PARADISE CIRCUS - Massive Attack
-------------------------------------------------------------------------------
Tabbed by: Juunobo

Tuning: Standard

Start at 1:12

G|--------------------------------|
D|--------------------------------|
A|8888----------------------------| X3
E|--------------------------------|
 
G|--------------------------------|
D|--------------------------------|
A|--------------------------------|
E|11111---------------------------|

G|--------------------------------|
D|--------------------------------|
A|8888----------------------------|
E|--------------------------------|


G|--------------------------------|
D|--------------------------------|
A|--------------------------------|
E|11111---------------------------|
   

G|--------------------------------|
D|--------66666-------------------|
A|88888-----------66666-----------|
E|------------------------88888888|


G|--------------------------------|
D|--------------------------------|
A|88888-----------------------7--7|
E|--------44444---44444---8888--8-|


G|--------------------------------|
D|--------66666-------------------|
A|88888-----------66666-----------|
E|------------------------88888888|


G|--------------------------------|
D|--------------------------------|
A|88888-----------------------7--7|
E|--------44444---44444---8888--8-|


G|--------------------------------|
D|--------------------------------|
A|88888---------------------------|
E|--------------------------------|


G|--------------------------------|
D|--------------------------------|
A|8888----------------------------| X2
E|--------------------------------|


G|--------------------------------|
D|--------------------------------|
A|88888888--------66666666--------| X4
E|--------44444444--------88888888|



G|--------------------------------|
D|--------------------------------|
A|8888----------------------------|
E|--------------------------------|


G|--------------------------------|
D|--------------------------------|
A|88888---------------------------|
E|--------44444-----------88888888|


G|--------------------------------|
D|--------------------------------|
A|88888-----------------------7--7|
E|--------44444---44444---8888--8-|


G|--------------------------------|
D|--------------------------------|
A|88888-----------66666-----------|
E|--------44444-----------88888888|


G|--------------------------------|
D|--------------------------------|
A|88888-----------------------7--7|
E|--------44444---44444---8888--8-|


G|--------------------------------|
D|--------------------------------|
A|88888-----------66666-----------|
E|--------44444-----------88888888|


G|--------------------------------|
D|--------------------------------|
A|88888-----------66666-----------|
E|--------44444-----------88888888|


G|--------------------------------|
D|--------------------------------|
A|88888888------------------------|
E|--------444444444444444488888888|


G|--------------------------------|
D|--------------------------------|
A|88888888------------------------|
E|--------444444444444444488888--8|


G|--------------------------------|
D|--------------------------------|
A|--------------------------------|
E|1-111--114444--44--4444-88888--8|


G|--------------------------------|
D|--------------------------------|
A|--------------------------------|
E|1-111--114444--44--44-----------|

===============================================================================
Tap to rate this tab
# A B C D E F G H I J K L M N O P Q R S T U V W X Y Z