Song name
# A B C D E F G H I J K L M N O P Q R S T U V W X Y Z

Massive Attack - Protection tab

Massive Attack
Protection

What is played with piano at the end of the song...
with acoutic guitar (tunning : standard) :


-------2-----2------------2-----2-----|
---------4-----4------------4-----4---|
-----3-----3------------3-----3-------|
---4------------------4---------------|
-2------------------2-----------------|
--------------------------------------|


-------0-----0------------0-----0-----|
---------0-----0------------0-----0---|
-----4-----4------------4-----4-------|
---4------------------4---------------|
-2------------------2-----------------|
--------------------------------------|

-------0-----0------------0-----0-----|
---------0-----0------------0-----0---|
-----4-----4------------4-----4-------|
---4------------------4---------------|
-0------------------------------------|
--------------------3-----------------|
Tap to rate this tab
 
# A B C D E F G H I J K L M N O P Q R S T U V W X Y Z