Song name
# A B C D E F G H I J K L M N O P Q R S T U V W X Y Z

Master Shortie - Bringing It Back tab

http://www.myspace.com/mastershortie

hey this is my version of bringing it back
i thought i would tab it cuz kno one else has
plz rate and all comments are welcome :)

intro
|----------------------------16--------------------------13-----|
|--------------------16--------------16------------16------14---|
|------15-17-18----17------18------17---17-------17----15-------|
|----15----------18------20------18--------18--18---------------|x2
|--13------------------------------------------------13---------|
|--------------16------18------16------------16-----------------|

verse
|--2---4---6---2---4---6--|
|--2---4---6---2---4---6--|
|--3---5---6---3---5---6--|
|--4---6---8---4---6---8--|x2
|--4---6---8---4---6---8--|
|--2---4---6---2---4---6--|

chorus
|--2---4---6---2---4---6--|
|--2---4---6---2---4---6--|
|--3---5---6---3---5---6--|
|--4---6---8---4---6---8--|x2
|--4---6---8---4---6---8--|
|--2---4---6---2---4---6--|

half way through 2nd verse play
|----------------------------16--------------------------13-----|
|--------------------16--------------16------------16------14---|
|------15-17-18----17------18------17---17-------17----15-------|
|----15----------18------20------18--------18--18---------------|x2
|--13------------------------------------------------13---------|
|--------------16------18------16------------16-----------------|

chorus
|--2---4---6---2---4---6--|
|--2---4---6---2---4---6--|
|--3---5---6---3---5---6--|
|--4---6---8---4---6---8--|x2
|--4---6---8---4---6---8--|
|--2---4---6---2---4---6--|

when he says kevin keegan play
|------------------------------|
|------------------------------|
|------------------13-15-------|
|----------13-14-16------------|
|--11-13-14--------------------|
|------------------------------|

then play
|-----------------------------------|
|------14-13-----------14-13--------|
|--15--------13--15--13-----13------|
|-----------------------------------|
|-----------------------------------|
|-----------------------------------|

chorus
|--2---4---6---2---4---6--|
|--2---4---6---2---4---6--|
|--3---5---6---3---5---6--|
|--4---6---8---4---6---8--|x4
|--4---6---8---4---6---8--|
|--2---4---6---2---4---6--|

played underneth till the end
|----------------------------16--------------------------13-----|
|--------------------16--------------16------------16------14---|
|------15-17-18----17------18------17---17-------17----15-------|
|----15----------18------20------18--------18--18---------------|
|--13------------------------------------------------13---------|
|--------------16------18------16------------16-----------------|

hope that help and enjoy the song nd problem let us kno :)

Tap to rate this tab
# A B C D E F G H I J K L M N O P Q R S T U V W X Y Z