Song name
# A B C D E F G H I J K L M N O P Q R S T U V W X Y Z

Masterplan - Headbangers Ballroom tab

=================================================================================

			Headbanger's Ballroom
=================================================================================

By:  Masterplan
Album: Aeronautics

Tabbed by: John Moores
mooresjw@email.uc.edu

Standard Tuning

* = Palm Mute
@ = Pinched harmonic
x = muted


Intro.  Pt. 1

|-------------------------------------------------------|
|-------------------------------------------------------|
|-------------------------------------------------------|  x4
|---4---5---6-------7-----6-----------------------------|
|---2---3---4---x-x-5-x-x-4--x--------------------------|
|-------------------------------------------------------|


Intro.  Pt. 2


0:10

|--------------------------------------------------------------------------------|
|--------------------------------------------------------------------------------|
|--------------------------------------------------------------------------------|
|--4--5--6------7-------6-------4--5--6------7-------6---------------------------|
|--2--3--4--x-x-5--x-x--4-------2--3--4--x-x-5--x-x--4---------------------------|
|---------------------------------------------------------3--2--0----------------|

|--------------------------------------------------------------------------------|
|--------------------------------------------------------------------------------|
|--------------------------------------------------------------------------------|
|---4--5--6-----7-----6-------4--5--6------7-------6-----------------------------|
|---2--3--4--x--5--x--4-------2--3--4-x-x--5--x-x--4-----------------------------|
|--------------------------------------------------------3@----------------------|

|--------------------------------------------------------------------------------|
|--------------------------------------------------------------------------------|
|--------------------------------------------------------------------------------|
|--4--5--6-----7-----6-------4--5--6-----7-----6---------------------------------|
|--2--3--4--x--5--x--4-------2--3--4--x--5--x--4---------------------------------|
|---------------------------------------------------3--2--0----------------------|

|--------------------------------------------------------------------------------|
|--------------------------------------------------------------------------------|
|--------------------------------------------------------------------------------|
|--4--5--6-----7-----6-------4--5--6-----7-----6---------------------------------|
|--2--3--4--x--5--x--4-------2--3--4--x--5--x--4---------------------------------|
|---------------------------------------------------3--2--0----------------------|
                                                    *  *  *


Verse 1

I'm not 100% sure on these verses, but it sounds pretty close to me.  I'm about
95% sure on the verse.

0:30

|--------------------------------------------------------------------------------|
|--------------------------------------------------------------------------------|
|--------------------------------------------------------------------------------|
|--------------------------------------------------------------------------------|
|--------3------------4-3-2---2-----3-----------3/4/5----------------------------|
|--0-000-1-00---0-000-2-1-0---0-000-1-00--0-000-1/2/3----------------------------|
   * *** * **   * *** * * *   * *** * **  * *** * * *
						x3
|--------------------------------------------------------------------------------|
|--------------------------------------------------------------------------------|
|--------------------------------------------------------------------------------|
|--------------------------------------------------------------------------------|
|--------3------------4-3-2---2-----3-----------3/4/5----------------------------|
|--0-000-1-00---0-0-0-2-1-0---0-0-0-1-00--0-0-0-1/2/3----------------------------|
   * *** * **   * * * *       * * * * **  * * *


Prechorus

0:50


|--------------------------------------------------------------------------------|
|--------------------------------------------------------------------------------|
|--------------------------------------------------------------------------------|
|-----9-9-9---9-9-9---9-9-9---9-9-9----------------------------------------------|
|-----7-7-7---7-7-7---7-7-7---7-7-7----4/6-6--6---4-4/6-6--6---------------------|
|--------------------------------------2/4-4--4---2-2/4-4--4---------------------|


|--------------------------------------------------------------------------------|
|--------------------------------------------------------------------------------|
|--------------------------------------------------------------------------------|
|-----9-9-9---9-9-9---9-9-9---9-9-9----4/6-6--6---4-4/6-6--6---------------------|
|-----7-7-7---7-7-7---7-7-7---7-7-7----2/4-4--4---2-2/4-4--4---------------------|
|--------------------------------------------------------------------------------|


|--------------------------------------------------------------------------------|
|--------------------------------------------------------------------------------|
|--------------------------------------------------------------------------------|
|-----9-9-9---9-9-9---9-9-9---9-9-9----------------------------------------------|
|-----7-7-7---7-7-7---7-7-7---7-7-7----4/6-6--6---4-4/6-6--6---------------------|
|--------------------------------------2/4-4--4---2-2/4-4--4---------------------|


|--------------------------------------------------------------------------------|
|--------------------------------------------------------------------------------|
|--------------------------------------------------------------------------------|
|-----9-9-9-----9-9-9-----9-9-9-----9-9-9----------------------------------------|
|-----7-7-7-----7-7-7-----7-7-7-----7-7-7------2-2-2-----2-2-2-------------------|
|----------------------------------------------0-0-0-----0-0-0-------------------|


|--------------------------------------------------------------------------------|
|--------------------------------------------------------------------------------|
|--------------------------------------------------------------------------------|
|-----6-6-6---6-6-6--------------------------------------------------------------|
|-----4-4-4---4-4-4-----4-4-4---4-4-4--------------------------------------------|
|-----------------------2-2-2---2-2-2--------------------------------------------|

Chorus

1:09/1:10

|--------------------------------------------------------------------------------|
|--------------------------------------------------------------------------------|
|--------------------------------------------------------------------------------|
|----6-6-6---6-6-6---4-4-4---4-4-4-----------------------------------------------|
|----4-4-4---4-4-4---2-2-2---2-2-2-----------------------------------------------|
|------------------------------------0-000-0-0-0-0-000-0-0-0---------------------|
                                     * *** * * * * *** * * *

|--------------------------------------------------------------------------------|
|--------------------------------------------------------------------------------|
|--------------------------------------------------------------------------------|
|----6-6-6---6-6-6---4-4-4---4-4-4----9-9-9---9-9-9----9-9-9---9-9---------------|
|----4-4-4---4-4-4---2-2-2---2-2-2----7-7-7---7-7-7----7-7-7---7-7---------------|
|--------------------------------------------------------------------//15\\0-----|


|--------------------------------------------------------------------------------|
|--------------------------------------------------------------------------------|
|--------------------------------------------------------------------------------|
|----6-6-6---6-6-6---4-4-4---4-4-4--------------------2-2-2--2-2-2---------------|
|----4-4-4---4-4-4---2-2-2---2-2-2---4-4-4---4-4-4----0-0-0--0-0-0---------------|
|------------------------------------2-2-2---2-2-2-------------------------------|


|--------------------------------------------------------------------------------|
|--------------------------------------------------------------------------------|
|--------------------------------------------------------------------------------|
|-------------------4-4-4-------------6-6-6---6-6-6------------------------------|
|----6-6-6---6-6-6--2-2-2----6-6-6----4-4-4---4-4-4------------------------------|
|----4-4-4---4-4-4-----------4-4-4-----------------------------------------------|

1:29

|--------------------------------------------------------------------------------|
|--------------------------------------------------------------------------------|
|--------------------------------------------------------------------------------|
|--4--5--6------7-------6-------4--5--6------7-------6---------------------------|
|--2--3--4--x-x-5--x-x--4-------2--3--4--x-x-5--x-x--4---------------------------|
|---------------------------------------------------------3--2--0----------------|

|--------------------------------------------------------------------------------|
|--------------------------------------------------------------------------------|
|--------------------------------------------------------------------------------|
|---4--5--6-----7-----6-------4--5--6------7-------6-----------------------------|
|---2--3--4--x--5--x--4-------2--3--4-x-x--5--x-x--4-----------------------------|
|--------------------------------------------------------3@----------------------|


Verse 2

1:39/1:40

|--------------------------------------------------------------------------------|
|--------------------------------------------------------------------------------|
|--------------------------------------------------------------------------------|
|--------------------------------------------------------------------------------|
|--------3------------4-3-2---2-----3-----------3/4/5----------------------------|
|--0-000-1-00---0-000-2-1-0---0-000-1-00--0-000-1/2/3----------------------------|
   * *** * **   * *** * * *   * *** * **  * *** * * *

|--------------------------------------------------------------------------------|
|--------------------------------------------------------------------------------|
|--------------------------------------------------------------------------------|
|-----------------------------------------------2--------------------------------|
|--------3------------4-3-2---2-----3-----------2--------------------------------|
|--0-000-1-00---0-0-0-2-1-0---0-0-0-1-00--0-0-0-0--------------------------------|
   * *** * **   * * * *       * * * * **  * * * *


|--------------------------------------------------------------------------------|
|--------------------------------------------------------------------------------|
|--------------------------------------------------------------------------------|
|---------------------------------------------------------------------------|  x2
|--------3------------4-3-2---2-----3-----------3/4/5----------------------------|
|--0-000-1-00---0-000-2-1-0---0-000-1-00--0-000-1/2/3----------------------------|
   * *** * **   * *** * * *   * *** * **  * *** * * *

Prechorus

1:59/2:00


Chorus

2:19

Solo 1
2:39


I don't have the solo figured out.  Just the solo rhythm.


|--------------------------------------------------------------------------------|
|--------------------------------------------------------------------------------|
|--------------------------------------------------------------------------------|
|-6-----6-6-6--6-6-6-------------------------------------------------------------|
|-6-----4-4-4--4-4-4--6-6-6---6-6-6---8-8-8---8-8-8---3-3-3---3-3-3--------------|
|-4-------------------4-4-4---4-4-4---6-6-6---6-6-6---1-1-1---1-1-1--------------|

|--------------------------------------------------------------------------------|
|--------------------------------------------------------------------------------|
|--------------------------------------------------------------------------------|
|----------------------6-6-6---6-6-6-----8-8-8----8-8-8--------------------------|
|----4-4-4-----4-4-4---4-4-4---4-4-4-----6-6-6----6-6-6----6-6-6---6-6-6---------|
|----2-2-2-----2-2-2---------------------------------------4-4-4---4-4-4---------|

|--------------------------------------------------------------------------------|
|--------------------------------------------------------------------------------|
|--------------------------------------------------------------------------------|
|----6-6-6--6-6-6----------------------------------------------------------------|
|----4-4-4--4-4-4--6-6-6---6-6-6---8-8-8---8-8-8---3-3-3---3-3-3-----------------|
|------------------4-4-4---4-4-4---6-6-6---6-6-6---1-1-1---1-1-1-----------------|


|--------------------------------------------------------------------------------|
|--------------------------------------------------------------------------------|
|--------------------------------------------------------------------------------|
|------------------------------------------------6-6-6----6-6-6------------------|
|----4-4-4---4-4-4------6-6-6---6-6-6---4---6----4-4-4----4-4-4------------------|
|----2-2-2---2-2-2------4-4-4---4-4-4---2---4------------------------------------|

2:56

|--------------------------------------------------------------------------------|
|--------------------------------------------------------------------------------|
|--------------------------------------------------------------------------------|
|--4--5--6------7-------6-------4--5--6------7-------6---------------------------|
|--2--3--4--x-x-5--x-x--4-------2--3--4--x-x-5--x-x--4---------------------------|
|---------------------------------------------------------3--2--0----------------|

Bridge

2:59

|--------------------------------------------------------------------------------|
|--------------------------------------------------------------------------------|
|----6--------------7-------------11----10-----6-------7-------------------------|
|----6--------------7-------------11----10-----6-------7-------------------------|
|----4--------------5-------------9-----8------4-------5-------------------------|
|--------------------------------------------------------------------------------|

|--------------------------------------------------------------------------------|
|--------------------------------------------------------------------------------|
|----6--------------7-----------11----10------11------14-------------------------|
|----6--------------7-----------11----10------11------14-------------------------|
|----4--------------5-----------9-----8-------9-------12-------------------------|
|--------------------------------------------------------------------------------|


Solo 2

Again, only the rhythm.

3:19


|--------------------------------------------------------------------------------|
|--------------------------------------------------------------------------------|
|--------------------------------------------------------------------------------|
|--------------------------------------------------------------------------------|
|----6-6-6-------6-6-6-------4-4-4-------2-2-2-----------------------------------|
|----4-4-4-------4-4-4-------2-2-2-------0-0-0-----------------------------------|


|--------------------------------------------------------------------------------|
|--------------------------------------------------------------------------------|
|--------------------------------------------------------------------------------|
|---------------------------4-4-4------------------------------------------------|
|----6-6-6-------6-6-6------2-2-2--------4-4-4-----------------------------------|
|----4-4-4-------4-4-4-------------------2-2-2-----------------------------------|
						x2

|--------------------------------------------------------------------------------|
|--------------------------------------------------------------------------------|
|--------------------------------------------------------------------------------|
|--------------------------------------------------------------------------------|
|----6-6-6-------6-6-6-------4-4-4-------2-2-2-----------------------------------|
|----4-4-4-------4-4-4-------2-2-2-------0-0-0-----------------------------------|


|--------------------------------------------------------------------------------|
|--------------------------------------------------------------------------------|
|--------------------------------------------------------------------------------|
|-----4-4-4---4-4-4------6-6-6----6-6-6------------------------------------------|
|-----2-2-2---2-2-2------4-4-4----4-4-4------------------------------------------|
|--------------------------------------------------------------------------------|

3:39

|--------------------------------------------------------------------------------|
|--------------------------------------------------------------------------------|
|------------------------------------------------------11----10----8-------------|
|---8-8-8-8\------8-8-8-8--9------------8-8-8-8\-------11----10----8-------------|
|---6-6-6-6\------6-6-6-6--7------------6-6-6-6\-------9-----8-----6-------------|
|--------------------------------------------------------------------------------|


3:48

|--------------------------------------------------------------------------------|
|--------------------------------------------------------------------------------|
|--------------------------------------------------------------------------------|
|--------------------------------------------6---4-------------------------------|
|-----6---4-------6---4----7--6----4-----------------7--6----4-------------------|
|-------------7-------------------------7------------------------7---------------|

Chorus

3:51

Solo 1 Rhythm

4:11

|--------------------------------------------------------------------------------|
|--------------------------------------------------------------------------------|
|--------------------------------------------------------------------------------|
|-6-----6-6-6--6-6-6-------------------------------------------------------------|
|-6-----4-4-4--4-4-4--6-6-6---6-6-6---8-8-8---8-8-8---3-3-3---3-3-3--------------|
|-4-------------------4-4-4---4-4-4---6-6-6---6-6-6---1-1-1---1-1-1--------------|

|--------------------------------------------------------------------------------|
|--------------------------------------------------------------------------------|
|--------------------------------------------------------------------------------|
|------------------------------------------------6-6-6----6-6-6------------------|
|----4-4-4---4-4-4------6-6-6---6-6-6---4---6----4-4-4----4-4-4------------------|
|----2-2-2---2-2-2------4-4-4---4-4-4---2---4------------------------------------|


4:18

|--------------------------------------------------------------------------------|
|--------------------------------------------------------------------------------|
|--------------------------------------------------------------------------------|
|--4--5--6------7-------6-------4--5--6------7-------6---------------------------|
|--2--3--4--x-x-5--x-x--4-------2--3--4--x-x-5--x-x--4---------------------------|
|---------------------------------------------------------3--2--0----------------|

Outro  (solo 2 rhythm)

4:21

|--------------------------------------------------------------------------------|
|--------------------------------------------------------------------------------|
|--------------------------------------------------------------------------------|
|--------------------------------------------------------------------------------|
|----6-6-6-------6-6-6-------4-4-4-------2-2-2-----------------------------------|
|----4-4-4-------4-4-4-------2-2-2-------0-0-0-----------------------------------|


|--------------------------------------------------------------------------------|
|--------------------------------------------------------------------------------|
|--------------------------------------------------------------------------------|
|---------------------------4-4-4------------------------------------------------|
|----6-6-6-------6-6-6------2-2-2--------4-4-4-----------------------------------|
|----4-4-4-------4-4-4-------------------2-2-2-----------------------------------|
								x2

|--------------------------------------------------------------------------------|
|--------------------------------------------------------------------------------|
|--------------------------------------------------------------------------------|
|--------------------------------------------------------------------------------|
|----6-6-6-------6-6-6-------4-4-4-------2-2-2-----------------------------------|
|----4-4-4-------4-4-4-------2-2-2-------0-0-0-----------------------------------|


|--------------------------------------------------------------------------------|
|--------------------------------------------------------------------------------|
|--------------------------------------------------------------------------------|
|-----4-4-4---4-4-4------6-6-6----6-6-6------------------------------------------|
|-----2-2-2---2-2-2------4-4-4----4-4-4------------------------------------------|
|--------------------------------------------------------------------------------|

4:39/4:40

|--------------------------------------------------------------------------------|
|--------------------------------------------------------------------------------|
|--------------------------------------------------------------------------------|
|--------------------------------------------------------------------------------|
|--------4---5---6\--------------------------------------------------------------|
|--------2---3---4\--------------------------------------------------------------|
Tap to rate this tab
# A B C D E F G H I J K L M N O P Q R S T U V W X Y Z