Song name
# A B C D E F G H I J K L M N O P Q R S T U V W X Y Z

Masterplan - Sail On tab

|---------------------------------------------------|
|-----13-11----------------------13-11--------------|
|--10-------12-13-10-12-------10-------12-13-10-12--|
|-----------------------13--------------------------|
|---------------------------------------------------|
|---------------------------------------------------|

|------------------------------------------------------------|
|-----13-11----------------------13-11-13-14-13-11-----------|
|--10-------12-13-10-12-------10-------------------13-12-10--|
|-----------------------13-----------------------------------|
|------------------------------------------------------------|
|------------------------------------------------------------|
Tap to rate this tab
 
# A B C D E F G H I J K L M N O P Q R S T U V W X Y Z