Song name
# A B C D E F G H I J K L M N O P Q R S T U V W X Y Z

Masterplan - Spirit Never Dies tab

Spirit never dies
Masterplan

Tuning: Half step ( D,G,C,F,A,D )

----------------------------------------------------------------

Ok, here we go

Intro Riff:

D--------------------------------|
A--------------------------------|
F--2-----------------------------|    X2
C--2-----2-----3-----5-----2-----|
G--0-----2-----3-----5-----2-----|
D--------0-----1-----3-----0-----|

After you've done the intro riff 2 times heres whats next:

D--------------------------------------------------------------|
A--------------------------------------------------------------|
F--------------------------------------------------------------|
C--------------------------------------------------------------|
G--0-0-0-0-0-0-0-0-0-0-----------------------------------------|
D----------------------0-0-0-0-0-0-0-0-0-0-1-1-1-1-1-1-1-1-1-1-|

D-------------------|
A-------------------|
F-------------------|
C-------------------|   X2
G-------------------|
D--3-3-3-3-0-0-0-0--|

After repeating this part 2 times, now heres the first verse up next ( my apoligies if 
are some mistakes)

Verse 1: ( listen to the song for the timming )

D----------------------------------------------------------------|
A----------------------------------------------------------------|
F----------------------------------------------------------------|
C----------------------------------------------------------------|
G----------------------------------------------------------------|
D--1-1-1---1-1-1--2-2-2-2-3-3-3-3-0-0-0---0-0-0--1-1-1-1-2-2-2-2-|

D-----------------------------------------|
A-----------------------------------------|
F-----------------------------------------|
C-----------------------------------------|   X2
G-----------------------------------------|
D--1-1-1---1-1-1--2-2-2-2-3-3-3-3-0-0-0---|

After Repeating the part above 2 times heres what comes next

D------------------------------------------------------------------|
A------------------------------------------------------------------|
F------------------------------------------------------------------|
C------------------------------------------------------------------|
G--6-6-6-6-6-6-6-6-8-8-8-8-4-4-4-4-4-4-4-4-6-6-6-6-6-6-6-6-8-8-8-8-|
D------------------------------------------------------------------|

D---------------------------------------------------------------------------|
A---------------------------------------------------------------------------|
F---------------------------------------------------------------------------|
C---------------------------------------------------------------------------|
G--4-4-4-4-4-4-4-4-3-3-3-3-3-3-3-3-4-4-4-4-2-2-2-2-2-2-2-2-3-3-3-3-3-3-3-3--|
D---------------------------------------------------------------------------|

D----------|
A----------|
F--7--5-6--|
C--7--5-6--|
G--5--3-4--|
D----------|

That is all i have so far, I do not understand the chorus at the moment so that would be 
i haven't completed this tab as a whole song but was tempting to do it all.( if you 
found mistakes in my tabbing my apoligies )

Anyway, hope these tabs of mine help for the lease.
Tap to rate this tab
# A B C D E F G H I J K L M N O P Q R S T U V W X Y Z