Song name
# A B C D E F G H I J K L M N O P Q R S T U V W X Y Z

Masterplan - Through Thick And Thin tab

Masterplan
Though thick and thin
Verse 1
----------------------------------------------------
Although I don't understand the first few notes that start off as a background solo I 
tab out the rythme instead.

Tuning: Standard
----------------------------------------------------

Verse 1:

Pm.    -            ---        -------------|
E-------------------------------------------|
B-------------------------------------------|
G-------------------------------------------|
D-5-4------------------------5-----4-4------|   X2
A-3-2----9-7-2-2--5-----5-5--3-0-0-2-2------|
E------0-7-5-0-0--3-3-3-3-3-----------------|

After you have repeated the top part 2 times this is next below.

Pm.    -            ---        ----------|
E----------------------------------------|
B----------------------------------------|
G----------------------------------------|
D-5-4-------------2-----2-2--2-----1-1---|
A-3-2----9-7-2-2--3-3-3-3-3--3-3-3-2-2---|
E------0-7-5-0-0-------------------------|

Well thats the first verse, hope this was useful for some.
Tap to rate this tab
# A B C D E F G H I J K L M N O P Q R S T U V W X Y Z