Song name
# A B C D E F G H I J K L M N O P Q R S T U V W X Y Z

Masterplan - Back For My Life tab

Lead Guitar part

Tuning: Half step (D#,G#,C#,F#,A#,d#)

Definitions: PM (Palmuted)

Ok, i think its the drums that do the first few sounds when the song starts but anyway,
thats over here the part you start playing below.

PM--------   --------   -------------|
d------------------------------------|
A------------------------------------|
F------------------------------------|   X2
C----------2----------2-------2------|
G----------2----------2-------2------|
D--0-0-0---0--0-0-0---0--0-0--0------|

PM--------   --------   ---------------------|
d--------------------------------------------|
A--------------------------------------------|
F---------------------------------7-----5----|
C----------4----------4-------4---7-----5----|
G----------4----------4-------4---5-----3----|
D--2-2-2---2--2-2-2---2--2-2--2--------------|

PM--------   --------   -------------|
d------------------------------------|
A------------------------------------|
F------------------------------------|   X2
C----------2----------2-------2------|
G----------2----------2-------2------|
D--0-0-0---0--0-0-0---0--0-0--0------|

PM--------   --------   ------------------------|
d-----------------------------------------------|
A-----------------------------------------------|
F--------------------------------6-----9---7----|
C----------4----------4-------4--6-----9---7----|
G----------4----------4-------4--4-----7---5----|
D--2-2-2---2--2-2-2---2--2-2--2-----------------|

PM
d-------|
A-------|
F--2----|   Let it ring
C--2----|
G--0----|
D-------|


This is all for me today, I will try to finish the rest some other day if I can.

I ain't the master of guitar in the world LOL

But atleast I give it a try.

Plz rate the tab, thank you.
Tap to rate this tab
# A B C D E F G H I J K L M N O P Q R S T U V W X Y Z