Song name
# A B C D E F G H I J K L M N O P Q R S T U V W X Y Z

Masters Apprentices - War Or Hands Of Time tab

-------------------------------------------------------------------------------
			     War or Hands of Time - Masters Apprentences
-------------------------------------------------------------------------------
Tabbed by:Awesome McAwesome
Email:gary_the_asshole@hotmail.com

Tuning:Standard

I was pissed that there were no tabs on any of the internets so I made one

Intro -Rhythm guitar plays notes as Chords
   Gm               F               D#              D   
e|-6---6---6---6----5---5---5---5---3---3---3---3---2---2---2---2------------|
B|--8---8---8---8----6---6---6---6---4---4---4---4---3---3---3---3-----------|
G|---7---7---7---7----5---5---5---5---3---3---3---3---2---2---2---2----------|  x2
D|---------------------------------------------------------------------------|
A|---------------------------------------------------------------------------|
E|---------------------------------------------------------------------------|

Verse
   G       F       A#      F
e|-3-3-33--1-1-11--6-6-66--1-1-11-|
B|-3-3-33--1-1-11--6-6-66--1-1-11-|
G|-4-4-44--2-2-22--7-7-88--2-2-22-|x3
D|-5-5-55--3-3-33--8-8-88--3-3-33-|
A|-5-5-55--3-3-33--8-8-88--3-3-33-|
E|-3-3-33--1-1-11--6-6-66--1-1-11-|

Chorus - Sounds like one guitar strums EAD while other plays quarter notes on GBE
   G   G  F    G  F  D
e|-3-|-3--1--|-3--1--5--|
B|-3-|-3--1--|-3--1--5--|
G|-4-|-4--2--|-4--2--7--|
D|-5-|-5--3--|-5--3--7--|
A|-5-|-5--3--|-5--3--5--|
E|-3-|-3--1--|-3--1-----|

Repeat x2

Solo
Theres a mistake or a noise in the first bar
e|-------------------------------|
B|-------17-18-17----------------|
G|----19----------19-19/15----15-|
D|-17----------------------17----|
A|-------------------------------|
E|-------------------------------|

e|-------------------------------------|
B|------17-18-17-----------------------|
G|---19----------19-19-19-17-17b-15----|
D|17--------------------------------17-|
A|-------------------------------------|
E|-------------------------------------|

e|---------------------------|
B|------5-6-5----------------|
G|----7-------7-7-7-5-5b-3---|
D|--5----------------------5-|
A|---------------------------|
E|---------------------------|

e|-------------------------------------|
B|------17-18-17-----------------------|
G|---19----------19-19-19-17-17b-15----|
D|17--------------------------------17-|
A|-------------------------------------|
E|-------------------------------------|


| /  slide up
| \  slide down
| h  hammer-on
| p  pull-off
| b  bend

===============================================================================
Tap to rate this tab
 
# A B C D E F G H I J K L M N O P Q R S T U V W X Y Z