Song name
# A B C D E F G H I J K L M N O P Q R S T U V W X Y Z

Masters Apprentices - Because I Love You tab

Because I Love You tab by Masters Apprentices
Tabbed by TaoK


INTRO:                                                                 X4
|---------------|------------------|------------------||------------------||
|-10--10-10-10--|-9----9---9---9---|-7----7---7---7---||-5----5---5---5---||
|---------------|------------------|------------------||------------------||
|-7--7--7--7--7-|-6--6---6---6---6-|-4--4---4---4---4-||-2--2---2---2---2-||
|-0--0--0--0--0-|-0--0---0---0---0-|-0--0---0---0---0-||-0--0---0---0---0-||
|---------------|------------------|------------------||------------------||


|-0--0-0-0--0-0-|0-0--0-0-0-0-|-0--0-0-0--0-0-|0-0-0-0-0-0-|----------------|----------------|
|-3--3-3-3--2-3-|5-3--3-3-2-3-|-3--3-3-3--2-3-|5-3-2-3-2-0-|10--10--10--10--|10--10--10--10--|
|-0--0-0-0--0-0-|0-0--0-0-0-0-|-0--0-0-0--0-0-|0-0-0-0-0-0-|----------------|----------------|
|---------------|-------------|---------------|------------|--7---7---7---7-|--7---7---7---7-|
|---------------|-------------|---------------|------------|--0---0---0---0-|--0---0---0---0-|
|---------------|-------------|---------------|------------|----------------|----------------|


|-0--0-0-0--0-0-|0-0--0-0-0-0-|-0--0-0-0--0-0-|0-0-0-0-0-0-|
|-3--3-3-3--2-3-|5-3--3-3-2-3-|-3--3-3-3--2-3-|5-3-2-3-2-0-|
|-0--0-0-0--0-0-|0-0--0-0-0-0-|-0--0-0-0--0-0-|0-0-0-0-0-0-|
|---------------|-------------|---------------|------------|
|---------------|-------------|---------------|------------|
|---------------|-------------|---------------|------------|

|-------------------------|12-------------------------|
|-10-10-12-12-14-14-14-14-|0--14-14-12-12-10-10-10-10-|
|-0--0--0--0--0--0--0--0--|9--0--0--0--0--0--0--0--0--|
|-7--7--9--9--11-11-11-11-|0--11-11-9--9--7--7--7--7--|
|-0--0--0--0--0--0--0--0--|---0--0--0--0--0--0--0--0--|
|-------------------------|---------------------------|


VERSE:
  A     B     C#           E  C#    B      A
|-------------------------|12-------------------------| X3
|-10-10-12-12-14-14-14-14-|0--14-14-12-12-10-10-10-10-|
|-0--0--0--0--0--0--0--0--|9--0--0--0--0--0--0--0--0--|
|-7--7--9--9--11-11-11-11-|0--11-11-9--9--7--7--7--7--|
|-0--0--0--0--0--0--0--0--|---0--0--0--0--0--0--0--0--|
|-------------------------|---------------------------|

|-------------------------|12--------------0-0-0-0-0--0-|-0-0-0-0-0--0-|
|-10-10-12-12-14-14-14-14-|0--14-14-12-12--5-5-5-5-5--5-|-5-5-5-5-5--5-|
|-0--0--0--0--0--0--0--0--|9--0--0--0--0---6-6-6-6-7--7-|-6-6-6-6-7--7-|
|-7--7--9--9--11-11-11-11-|0--11-11-9--9---7-7-7-7-7--7-|-7-7-7-7-7--7-|
|-0--0--0--0--0--0--0--0--|---0--0--0--0---0-0-0-0-0--0-|-0-0-0-0-0--0-|
|-------------------------|-----------------------------|--------------|


CHORUS:
   A          B     D     A      Asus
|--0--------|-------2----|-0------0--| X4
|--5--------|-------3----|-5------5--|
|--6--------|-4-----2----|-6------7--|
|--7--------|-4-----0----|-7------7--|
|--0--------|-2----------|-0------0--|
|-----------|------------|-----------|


INTRO:                                                                 X4
|---------------|------------------|------------------||------------------||
|-10--10-10-10--|-9----9---9---9---|-7----7---7---7---||-5----5---5---5---||
|---------------|------------------|------------------||------------------||
|-7--7--7--7--7-|-6--6---6---6---6-|-4--4---4---4---4-||-2--2---2---2---2-||
|-0--0--0--0--0-|-0--0---0---0---0-|-0--0---0---0---0-||-0--0---0---0---0-||
|---------------|------------------|------------------||------------------||


|-0--0-0-0--0-0-|0-0--0-0-0-0-|-0--0-0-0--0-0-|0-0-0-0-0-0-|----------------|----------------|
|-3--3-3-3--2-3-|5-3--3-3-2-3-|-3--3-3-3--2-3-|5-3-2-3-2-0-|10--10--10--10--|10--10--10--10--|
|-0--0-0-0--0-0-|0-0--0-0-0-0-|-0--0-0-0--0-0-|0-0-0-0-0-0-|----------------|----------------|
|---------------|-------------|---------------|------------|--7---7---7---7-|--7---7---7---7-|
|---------------|-------------|---------------|------------|--0---0---0---0-|--0---0---0---0-|
|---------------|-------------|---------------|------------|----------------|----------------|


|-0--0-0-0--0-0-|0-0--0-0-0-0-|-0--0-0-0--0-0-|0-0-0-0-0-0-|
|-3--3-3-3--2-3-|5-3--3-3-2-3-|-3--3-3-3--2-3-|5-3-2-3-2-0-|
|-0--0-0-0--0-0-|0-0--0-0-0-0-|-0--0-0-0--0-0-|0-0-0-0-0-0-|
|---------------|-------------|---------------|------------|
|---------------|-------------|---------------|------------|
|---------------|-------------|---------------|------------|

|-------------------------|12-------------------------|
|-10-10-12-12-14-14-14-14-|0--14-14-12-12-10-10-10-10-|
|-0--0--0--0--0--0--0--0--|9--0--0--0--0--0--0--0--0--|
|-7--7--9--9--11-11-11-11-|0--11-11-9--9--7--7--7--7--|
|-0--0--0--0--0--0--0--0--|---0--0--0--0--0--0--0--0--|
|-------------------------|---------------------------|


VERSE:
  A     B     C#           E  C#    B      A
|-------------------------|12-------------------------| X3
|-10-10-12-12-14-14-14-14-|0--14-14-12-12-10-10-10-10-|
|-0--0--0--0--0--0--0--0--|9--0--0--0--0--0--0--0--0--|
|-7--7--9--9--11-11-11-11-|0--11-11-9--9--7--7--7--7--|
|-0--0--0--0--0--0--0--0--|---0--0--0--0--0--0--0--0--|
|-------------------------|---------------------------|

|-------------------------|12--------------0-0-0-0-0--0-|-0-0-0-0-0--0-|
|-10-10-12-12-14-14-14-14-|0--14-14-12-12--5-5-5-5-5--5-|-5-5-5-5-5--5-|
|-0--0--0--0--0--0--0--0--|9--0--0--0--0---6-6-6-6-7--7-|-6-6-6-6-7--7-|
|-7--7--9--9--11-11-11-11-|0--11-11-9--9---7-7-7-7-7--7-|-7-7-7-7-7--7-|
|-0--0--0--0--0--0--0--0--|---0--0--0--0---0-0-0-0-0--0-|-0-0-0-0-0--0-|
|-------------------------|-----------------------------|--------------|


CHORUS:
   A          B     D     A      Asus
|--0--------|-------2----|-0------0--| X8 (and then some...until fade out)
|--5--------|-------3----|-5------5--|
|--6--------|-4-----2----|-6------7--|
|--7--------|-4-----0----|-7------7--|
|--0--------|-2----------|-0------0--|
|-----------|------------|-----------|
Tap to rate this tab
 
# A B C D E F G H I J K L M N O P Q R S T U V W X Y Z