Song name
# A B C D E F G H I J K L M N O P Q R S T U V W X Y Z

Masters Of Reality - Domino tab

Thanks to Mr. Morgul and www.mastersofreality.de
http://www.mastersofreality.com/ - Official MOR site

e|-----1---1-1---1-1---1---1h3-|-----------------|
B|-----1---1-1---1-1---1---1h3-|-----------------|
G|-0h2---2-----2-----2---2-----|-----------------|
D|-----------------------------|-----------------|
A|-----------------------------|-----------------|
D|-----------------------------|-0-0-0-0-0-0-0-0-|
PM. . . . . . . .

e|-------------|-----------------|
B|-------------|-----------------|
G|-x-7-x-5-----|-----------------|
D|-x-7-x-5-----|-----------------|
A|-x-5-x-3-5-3-|-----------------|
D|---------5-3-|-0-0-0-0-0-0-0-0-|
PM. . . . . . . .

e|-----------------|-------------|-------------|
B|-----------------|-------------|-2/4-2-------|
G|-----------------|-------------|-------3-1---|
D|-----------------|-------------|-----------4-|
A|-4/5-4/5-4/5-3-5-|-------------|-------------|
D|-4/5-4/5-4/5-3-5-|-3p0-0-0-0-0-|-------------|
Tap to rate this tab
 
# A B C D E F G H I J K L M N O P Q R S T U V W X Y Z