Song name
# A B C D E F G H I J K L M N O P Q R S T U V W X Y Z

Masters Of Reality - Rabbit One tab

----------------------------------------------------------------
                             RABBIT ONE - Masters of Reality
----------------------------------------------------------------
Tabbed by: Bowen Jones
E-mail: jonesb93@gmail.com

Tuning: Standard

e|-------------------------------------------------------------|
B|--------------------------7----------------------------------|
G|------6-6---6--8------------6-6---6--8-----------------------|
D|--6h8--------------------------------------------------------|
A|------------------6---------------------6--------------------|
E|-------------------------------------------------------------|

e|-------------------------------------------------------------|
B|--------------------------7----------------------------------|
G|------6-6---6--8------------6-6---6--8-----------------------|
D|--6h8--------------------------------------------------------|
A|------------------6---------------------6------4-------------|
E|-------------------------------------------------------------|

e|-------------------------------------------------------------|
B|-------------------------------------------------------------|
G|-------------------------------------------------------------|
D|-------------------------------------------------------------|
A|--9b----9b----9b--9b--6----9b----16/-9b----------------------|
E|-------------------------------------------------------------|

e|-------------------------------------------------------------|
B|-------------------------------------------------------------|
G|-------------------------------------------------------------|
D|-------------------------------------------------------------|
A|--9b--9b--6p4------9-11-9-11b-11b--11b-11b-11br11br11br11br--|
E|-------------------------------------------------------------|

e|-------------------------------------------------------------|
B|-------------------------------------------------------------|
G|--------7-7-7-7----------------------------------------------|
D|-------------------------------------------------------------|
A|--6p4-----------4h6p4h6p4h6p4--------------------------------|
E|-------------------------------------------------------------|


************************************

| /   slide up
| \   slide down
| h   hammer-on
| p   pull-off
| ~   vibrato
| +   harmonic
| x   Mute note
| b   Bend
| pb  Pre-bend
| br  Bend release
| pbr Pre-bend release
| brb Bend release bend

************************************
Tap to rate this tab
# A B C D E F G H I J K L M N O P Q R S T U V W X Y Z