Song name
# A B C D E F G H I J K L M N O P Q R S T U V W X Y Z

Masticator - Burn Their Bodies tab

#----------------------------------PLEASE NOTE---------------------------------#
#This file is the author's own work and represents their interpretation of the #
#song. You may only use this file for private study, scholarship, or research. #
#------------------------------------------------------------------------------#

BURN THEIR BODIES
As recorded by Masticator
(From the 2009 Album INTERNAL INVERSION)

Transcribed by Mike Dickson
	

Words and Music by Mike Dickson
Arranged by Mike Dickson & Dan Simpson

Gtr I (D G C F A D) - 'Untitled'
Gtr II (D G C F A D) - 'Untitled'

 4/4
  Gtr I
  TPTPTPTPTPTPTPTP  TPTPTPTPTPTPTPTP  TPTPTPTPTPTPTPTP
  E E E E E E E E   E E E E E E E E   E E E E E E E E
|-----------------|-----------------|-----------------|----|
|-----------------|-----------------|-----------------|----|
|-----------------|---------4-3-----|-----------------|----|
|---4-5-----------|---4-5-------4-5-|---4-5-----------|----|
|-------3---------|-------3---------|-------3---------|----|
|-2-------5-6-3-0-|-2---------------|-2-------5-6-3-0-|----|
|
| Gtr II
| PM------------------------------------------------|
| E E E E E E E E   E E E E E E E E   E E E E E E E E
|-----------------|-----------------|-----------------|----|
|-----------------|-----------------|-----------------|----|
|-----------------|-----------------|-----------------|----|
|-----------------|---------4-3-----|-----------------|----|
|-4-------7-8-5-2-|-4-------2-1-4-5-|-4-------7-8-5-2-|----|
|-2-x-x-x-5-6-3-0-|-2-x-x-x-----2-3-|-2-x-x-x-5-6-3-0-|----|


  Gtrs I, II
  PM--------------|
  E E E E   E E E E
|---------|---------|----|
|---------|---------|----|
|---------|---------|----|
|-----4-3-|---------|----|
|-4-5-2-1-|-4-5-4-2-|----|
|-2-3-----|-2-3-2-0-|----|


  Gtrs I, II
  TPTPTPTPTPTPTPTP  TPTPTPTPTPTPTPTP  TPTPTPTPTPTPTPTP
  E E E E E E E E   E E E E E E E E   E E E E E E E E
|-----------------|-----------------|--------------------|
|-----------------|-----------------|--------------------|
|-----------------|---------4-3-----|--------------------|
|---4-5-----------|---4-5-------4-5-|---4-5--------------|
|-------3---------|-------3---------|-------3------------|
|-2-------5-6-3-0-|-2---------------|-2-------5-6-3-0----|


  Gtrs I, II
  PM------------|
  E E E E E E E E
|-----------------|----|
|-----------------|----|
|-----------------|----|
|-----4-3---------|----|
|-4-5-2-1-4-5-4-2-|----|
|-2-3-----2-3-2-0-|----|


  Gtr I
  TPTPTPTPTPTPTPTP  TPTPTPTPTPTPTPTP  TPTPTPTPTPTPTPTP
  E E E E E E E E   E E E E E E E E   E E E E E E E E
|-----------------|-----------------|--------------------|
|-----------------|-----------------|--------------------|
|-----------------|---------7-6-----|--------------------|
|---7-8-----------|---7-8-------7-8-|---7-8--------------|
|-------6---------|-------6---------|-------6------------|
|-5-------7-8-6-3-|-5---------------|-5-------7-8-6-3----|
|
| Gtr II
| TPTPTPTPTPTPTPTP  TPTPTPTPTPTPTPTP  TPTPTPTPTPTPTPTP
| E E E E E E E E   E E E E E E E E   E E E E E E E E
|-----------------|-----------------|--------------------|
|-----------------|-----------------|--------------------|
|-----------------|---------4-3-----|--------------------|
|---4-5-----------|---4-5-------4-5-|---4-5--------------|
|-------3---------|-------3---------|-------3------------|
|-2-------5-6-3-0-|-2---------------|-2-------5-6-3-0----|


  PM------------|
  E E E E E E E E
|--------------------|
|--------------------|
|--------------------|
|-----7-6------------|
|-7-8-5-4-7-8-7-5----|
|-5-6-----5-6-5-3----|
|
| PM------------|
| E E E E E E E E
|--------------------|
|--------------------|
|--------------------|
|-----4-3------------|
|-4-5-2-1-4-5-4-2----|
|-2-3-----2-3-2-0----|


  TPTPTPTPTPTPTPTP  TPTPTPTPTPTPTPTP  TPTPTPTPTPTPTPTP
  E E E E E E E E   E E E E E E E E   E E E E E E E E
|-----------------|-----------------|--------------------|
|-----------------|-----------------|--------------------|
|-----------------|---------7-6-----|--------------------|
|---7-8-----------|---7-8-------7-8-|---7-8--------------|
|-------6---------|-------6---------|-------6------------|
|-5-------7-8-6-3-|-5---------------|-5-------7-8-6-3----|
|
| TPTPTPTPTPTPTPTP  TPTPTPTPTPTPTPTP  TPTPTPTPTPTPTPTP
| E E E E E E E E   E E E E E E E E   E E E E E E E E
|-----------------|-----------------|--------------------|
|-----------------|-----------------|--------------------|
|-----------------|---------4-3-----|--------------------|
|---4-5-----------|---4-5-------4-5-|---4-5--------------|
|-------3---------|-------3---------|-------3------------|
|-2-------5-6-3-0-|-2---------------|-2-------5-6-3-0----|


  PM------------|
  E E E E E E E E
|--------------------|
|--------------------|
|--------------------|
|-----7-6------------|
|-7-8-5-4-7-8-7-5----|
|-5-6-----5-6-5-3----|
|
| PM------------|
| E E E E E E E E
|--------------------|
|--------------------|
|--------------------|
|-----4-3------------|
|-4-5-2-1-4-5-4-2----|
|-2-3-----2-3-2-0----|


  PM----------------------------------|                 TPTPTPTPTPTP
  E E E E E E E E   E E E E E E E E   E E E E E E E E   E E E E E E Q
|-----------------|-----------------|-----------------|----------------|
|-----------------|-----------------|-----------------|----------------|
|-----------------|-----------------|-----------------|----------------|
|-----------------|-----------------|-----------------|-7-8-7-5-----8--|
|-4-------------5-|-4-----------7-8-|-4---------------|---------8-7-8--|
|-2-x-x-x-x-x-x-3-|-2-x-x-x-x-x-5-6-|-2-x-x-x-x-x-x-x-|-------------6--|
|
| TPTPTPTPTPTPTPTP  TPTPTPTPTPTPTPTP  TPTPTPTPTPTPTPTP  TPTPTPTPTPTP
| E E E E E E E E   E E E E E E E E   E E E E E E E E   E E E E E E Q
|-----------------|-----------------|-----------------|----------------|
|-----------------|-----------------|-----------------|----------------|
|-------4-3-------|-----------------|-------4-3-------|----------------|
|---5-4-----2-4-5-|---5-4-2---------|---5-4-----2-4-5-|-4-5-4-2-----8--|
|-----------------|---------5-4-----|-----------------|---------5-4-8--|
|-2---------------|-2-----------5-6-|-2---------------|-------------6--|


  TPTPTPTPTPTPTPTP  TPTPTPTPTPTPTPTP  TPTPTPTPTPTPTPTP  TPTPTPTPTPTP
  E E E E E E E E   E E E E E E E E   E E E E E E E E   E E E E E E Q
|-----------------|-----------------|-----------------|----------------|
|-----------------|-----------------|-----------------|----------------|
|-------4-3-------|-----------------|-------4-3-------|----------------|
|---5-4-----2-4-5-|---5-4-2---------|---5-4-----2-4-5-|-4-5-4-2-----8--|
|-----------------|---------5-4-----|-----------------|---------5-4-8--|
|-2---------------|-2-----------5-6-|-2---------------|-------------6--|


  TPTPTPTPTPTPTPTP  TPTPTPTPTPTPTPTP  TPTPTPTPTPTPTPTP  TPTPTPTPTPTP
  E E E E E E E E   E E E E E E E E   E E E E E E E E   E E E E E E Q
|-----------------|-----------------|-----------------|----------------|
|-----------------|-----------------|-----------------|----------------|
|-------4-3-------|-----------------|-------4-3-------|----------------|
|---5-4-----2-4-5-|---5-4-2---------|---5-4-----2-4-5-|-4-5-4-2-----8--|
|-----------------|---------5-4-----|-----------------|---------5-4-8--|
|-2---------------|-2-----------5-6-|-2---------------|-------------6--|


  TPTPTPTPTPTPTPTP  TPTPTPTPTPTPTPTP  TPTPTPTPTPTPTPTP  TPTPTPTPTPTP
  E E E E E E E E   E E E E E E E E   E E E E E E E E   E E E E E E Q
|-----------------|-----------------|-----------------|----------------|
|-----------------|-----------------|-----------------|----------------|
|-------4-3-------|-----------------|-------4-3-------|----------------|
|---5-4-----2-4-5-|---5-4-2---------|---5-4-----2-4-5-|-4-5-4-2-----8--|
|-----------------|---------5-4-----|-----------------|---------5-4-8--|
|-2---------------|-2-----------5-6-|-2---------------|-------------6--|


  PMTPTPPM----| TP  TPPM----| TPTPPM----------------|
  E E E E E E E E   E E E E E E E E   E E E E E E E E
|-----------------|-----------------|--------------------|
|-----------------|-----------------|--------------------|
|-----------------|-----------------|--------------------|
|-----------------|-----------------|--------------------|
|-4-----2-4-5-4---|---2-9-8-4-----2-|-4-5-9-8-4-5-2-5----|
|-2-2-2-0-2-3-2-2-|-2-0-7-6-2-2-2-0-|-2-3-7-6-2-3-0-3----|
|
| PM------------------------------------------------|
| E E E E E E E E   E E E E E E E E   E E E E E E E E
|-----------------|-----------------|--------------------|
|-----------------|-----------------|--------------------|
|-----------------|-----------------|--------------------|
|-----------------|-----------------|--------------------|
|-4-----2-4-5-4---|---2-9-8-4-----2-|-4-5-9-8-4-5-2-5----|
|-2-x-x-0-2-3-2-x-|-x-0-7-6-2-x-x-0-|-2-3-7-6-2-3-0-3----|


  PMTPTPPM----| TP  TPPM----| TPTPPM----------------|
  E E E E E E E E   E E E E E E E E   E E E E E E E E
|-----------------|-----------------|--------------------|
|-----------------|-----------------|--------------------|
|-----------------|-----------------|--------------------|
|-----------------|-----------------|--------------------|
|-4-----2-4-5-4---|---2-9-8-4-----2-|-4-5-9-8-4-5-2-5----|
|-2-2-2-0-2-3-2-2-|-2-0-7-6-2-2-2-0-|-2-3-7-6-2-3-0-3----|


  PM          PM              PM          TPTPTPTPTPTP
  E E E E E   E E E E E E E   E E E E E   Q E E Q E E
|-----------|---------------|-----------|----------------|
|-----------|---------------|-----------|----------------|
|-----------|---------------|-----------|-4-3------------|
|-----------|---------------|-----------|-----4-5-2-4----|
|-4---------|-5-------------|-4---------|----------------|
|-2-x-x-x-x-|-3-x-x-x-x-x-x-|-2-x-x-x-x-|----------------|
|
|   TPTPTPTP    TPTPTPTPTPTP    TPTPTPTP  TPTPTPTPTPTP
| E E E E H   E E E E Q E E   E E E E H   Q E E Q E E
|-----------|---------------|-----------|----------------|
|-----------|---------------|-----------|----------------|
|-----------|---------------|-----------|-4-3------------|
|---2-4-5-8-|---2-4-5-9-8-5-|---2-4-5-8-|-----4-5-2-4----|
|-4---------|-5-------------|-4---------|----------------|
|-2---------|-3-------------|-2---------|----------------|


  H E H  E E E Q E E   H E H E E E H
|--------------------|------------------|
|--------------------|------------------|
|--------------------|------------------|
|-4-5-4----4-5-9-8---|-4-5-4---4-5-8----|
|-4-5-4--2-4-5-9-8-2-|-4-5-4-2-4-5-8----|
|-2-3-2--0-2-3-7-6-0-|-2-3-2-0-2-3-6----|


  H E H  E E E Q E E   H E Q E Q E E Q E E
|--------------------|------------------------|
|--------------------|------------------------|
|--------------------|------------------------|
|-4-5-4----4-5-9-8---|-4-5-4---9-8-4-5---5----|
|-4-5-4--2-4-5-9-8-2-|-4-5-4-2-9-8-4-5-2-5----|
|-2-3-2--0-2-3-7-6-0-|-2-3-2-0-7-6-2-3-0-3----|


    TPTPTPTP       TPTPTPTP TPTP    TPTPTPTP     TP TPTPTP TPTP
  E E E E H      E E E E Q  E E   E E E E H      Q  E E Q  E E
|--------------|----------------|--------------|---------------|
|--------------|----------------|--------------|---------------|
|--------------|----------------|--------------|-4--3----------|
|---2-4-5-8----|---2-4-5-9--8-5-|---2-4-5-8----|------4-5--2-4-|
|-4------------|-5--------------|-4------------|---------------|
|-2------------|-3--------------|-2------------|---------------|


    TPTPTPTP       TPTPTPTP TPTP    TPTPTPTP     TP TPTPTP TPTP
  E E E E H      E E E E Q  E E   E E E E H      Q  E E Q  E E
|--------------|----------------|--------------|---------------|
|--------------|----------------|--------------|---------------|
|--------------|----------------|--------------|-4--3----------|
|---2-4-5-8----|---2-4-5-9--8-5-|---2-4-5-8----|------4-5--2-4-|
|-4------------|-5--------------|-4------------|---------------|
|-2------------|-3--------------|-2------------|---------------|


  H    E H      E E E Q  E E H      E Q  E Q  E E   Q  E E
|-------------|-------------------|---------------|--------|
|-------------|-------------------|---------------|--------|
|-------------|-------------------|---------------|--------|
|-4----5-4----|---4-5-9--8---4----|-5-4----9--8-4-|-5----5-|
|-4----5-4----|-2-4-5-9--8-2-4----|-5-4--2-9--8-4-|-5--2-5-|
|-2----3-2----|-0-2-3-7--6-0-2----|-3-2--0-7--6-2-|-3--0-3-|


  H    E H      E E E Q  E E H      E Q  E Q  E E   Q  E E
|-------------|-------------------|---------------|--------|
|-------------|-------------------|---------------|--------|
|-------------|-------------------|---------------|--------|
|-4----5-4----|---4-5-9--8---4----|-5-4----9--8-4-|-5----5-|
|-4----5-4----|-2-4-5-9--8-2-4----|-5-4--2-9--8-4-|-5--2-5-|
|-2----3-2----|-0-2-3-7--6-0-2----|-3-2--0-7--6-2-|-3--0-3-|


  TPTPTPTPTPTPTPTP  TPTPTPTPTPTPTPTP  TPTPTPTPTPTPTPTP  TPTPTPTPTPTP
  E E E E E E E E   E E E E E E E E   E E E E E E E E   E E E E E E Q
|-----------------|-----------------|-----------------|----------------|
|-----------------|-----------------|-----------------|----------------|
|-------4-3-------|-----------------|-------4-3-------|----------------|
|---5-4-----2-4-5-|---5-4-2---------|---5-4-----2-4-5-|-4-5-4-2-----8--|
|-----------------|---------5-4-----|-----------------|---------5-4-8--|
|-2---------------|-2-----------5-6-|-2---------------|-------------6--|


  TPTPTPTPTPTPTPTP  TPTPTPTPTPTPTPTP  TPTPTPTPTPTPTPTP  TPTPTPTPTPTP
  E E E E E E E E   E E E E E E E E   E E E E E E E E   E E E E E E Q
|-----------------|-----------------|-----------------|----------------|
|-----------------|-----------------|-----------------|----------------|
|-------4-3-------|-----------------|-------4-3-------|----------------|
|---5-4-----2-4-5-|---5-4-2---------|---5-4-----2-4-5-|-4-5-4-2-----8--|
|-----------------|---------5-4-----|-----------------|---------5-4-8--|
|-2---------------|-2-----------5-6-|-2---------------|-------------6--|


  TPTPTPTPTPTPTPTP  TPTPTPTPTPTPTPTP  TPTPTPTPTPTPTPTP  TPTPTPTPTPTP
  E E E E E E E E   E E E E E E E E   E E E E E E E E   E E E E E E Q
|-----------------|-----------------|-----------------|----------------|
|-----------------|-----------------|-----------------|----------------|
|-------4-3-------|-----------------|-------4-3-------|----------------|
|---5-4-----2-4-5-|---5-4-2---------|---5-4-----2-4-5-|-4-5-4-2-----8--|
|-----------------|---------5-4-----|-----------------|---------5-4-8--|
|-2---------------|-2-----------5-6-|-2---------------|-------------6--|


  TPTPTPTPTPTPTPTP  TPTPTPTPTPTPTPTP  TPTPTPTPTPTPTPTP  TPTPTPTPTPTP
  E E E E E E E E   E E E E E E E E   E E E E E E E E   E E E E E E Q
|-----------------|-----------------|-----------------|----------------|
|-----------------|-----------------|-----------------|----------------|
|-------4-3-------|-----------------|-------4-3-------|----------------|
|---5-4-----2-4-5-|---5-4-2---------|---5-4-----2-4-5-|-4-5-4-2-----8--|
|-----------------|---------5-4-----|-----------------|---------5-4-8--|
|-2---------------|-2-----------5-6-|-2---------------|-------------6--|


  PMTPTPPM------| TPTPPM------| TPTPPM----------------|
  E E E E E E   E E E E E E   E E E E E E   E E E E E E
|-------------|-------------|-------------|----------------|
|-------------|-------------|-------------|----------------|
|-------------|-------------|-------------|----------------|
|-------------|-------------|-------------|----------------|
|-4-----2-4-5-|-4-----2-9-8-|-4-----2-4-5-|-9-8-4-5-2-5----|
|-2-2-2-0-2-3-|-2-2-2-0-7-6-|-2-2-2-0-2-3-|-7-6-2-3-0-3----|


  PMTPTPPM----| TP  TPPM----| TPTPPM----------------|
  E E E E E E E E   E E E E E E E E   E E E E E E E E
|-----------------|-----------------|--------------------|
|-----------------|-----------------|--------------------|
|-----------------|-----------------|--------------------|
|-----------------|-----------------|--------------------|
|-4-----2-4-5-4---|---2-9-8-4-----2-|-4-5-9-8-4-5-2-5----|
|-2-2-2-0-2-3-2-2-|-2-0-7-6-2-2-2-0-|-2-3-7-6-2-3-0-3----|



Duration Legend
---------------
W - whole; H - half; Q - quarter; E - 8th; S - 16th; T - 32nd; X - 64th; a - acciaccatura
+ - note tied to previous; . - note dotted; .. - note double dotted
Uncapitalized letters represent notes that are staccato (1/2 duration)
Irregular groupings are notated above the duration line
Duration letters will always appear directly above the note/fret number it represents the
duration for.  Duration letters with no fret number below them represent rests.  Multi-
bar rests are notated in the form Wxn, where n is the number of bars to rest for.  Low
melody durations appear below the staff

Tablature Legend
----------------
 h   - hammer-on
 p   - pull-off
 b   - bend
 pb  - pre-bend
 r   - bend release (if no number after the r, then release immediately)
 /\  - slide into or out of (from/to "nowhere")
 s   - legato slide
 S   - shift slide
 - natural harmonic
[n]  - artificial harmonic
n(n) - tapped harmonic
 ~   - vibrato
 tr  - trill
 T   - tap
 TP  - trem. picking
 PM  - palm muting
\n/  - tremolo bar dip; n = amount to dip
 \n  - tremolo bar down
 n/  - tremolo bar up
/n\  - tremolo bar inverted dip
 =   - hold bend; also acts as connecting device for hammers/pulls
 <> - volume swell (louder/softer)
 x   - on rhythm slash represents muted slash
 o   - on rhythm slash represents single note slash

Misc Legend
-----------
 |  - bar
||  - double bar
||o - repeat start
o|| - repeat end
*|  - double bar (ending)
 :  - bar (freetime)
 $  - Segno
 &  - Coda
Tempo markers -  = BPM(8/16=s8/s16), where s8 = swing 8ths, s16 = swing 16ths


** Generated using Power Tab Editor by Brad Larsen: The Official Power Tab Web Site
Tap to rate this tab
 
# A B C D E F G H I J K L M N O P Q R S T U V W X Y Z