Song name
# A B C D E F G H I J K L M N O P Q R S T U V W X Y Z

Masticator - Soaking In The Mutilated tab

 #----------------------------------PLEASE NOTE---------------------------------#
#This file is the author's own work and represents their interpretation of the #
#song. You may only use this file for private study, scholarship, or research. #
#------------------------------------------------------------------------------#

SOAKING IN THE MUTILATED
As recorded by Masticator
(From the 2009 Album INTERNAL INVERSION)


	

Words and Music by Mike Dickson

Gtr I (D# G# C# F# A# D#) - 'Untitled'

   4/4
    Gtr I
    PM--------------|      PM--------------|     PM--------------|
    |-------3-------|      |-------3-------|     |-------3-------|
    E E E E E E E E E Q    E E E E E E E E E Q   E E E E E E E E E Q
||-----------------------|---------------------|----------------------|
||o----------------------|---------------------|----------------------|
||-----------------------|---------------------|----------------------|
||--------------------9--|-------------------8-|-------------------9--|
||o-------------------7--|-------------------6-|-------------------7--|
||--6-3-0-1-4-0-6-3-0-7--|-6-3-0-1-4-0-6-3-0-6-|-6-3-0-1-4-0-6-3-0-7--|


  PM--------------------|
  |----------3----------|
  E E E E E E E E E E E E  4x
|--------------------------||----|
|-------------------------o||----|
|--------------------------||----|
|--------------------------||----|
|-6-----6-----------------o||----|
|---5-0---5-0-8-5-0-3-6-0--||----|


    |3| |-3-| |3| |---3---| |3| |-3-| |3| |3| |-3-|
    E E E E E E E E E E E E E E E E E E E E E E E E
||-----------------------------------------------------|
||o----------------------------------------------------|
||-----------------------------------------------------|
||--8-7---------3-----------8-7---------3-----5-6------|
||o-6-5---------3-----------6-5---------3-----5-6------|
||--6-5-0-0-0-0-1-0-0-0-0-0-6-5-0-0-0-0-1-0-0-3-4-0----|


                          PM--------------------|
  |3| |-3-| |3| |---3---| |----------3----------|
  E E E E E E E E E E E E E E E E E E E E E E E E
|--------------------------------------------------||----|
|-------------------------------------------------o||----|
|--------------------------------------------------||----|
|-8-7---------3------------------------------------||----|
|-6-5---------3-----------------------------3-6---o||----|
|-6-5-0-0-0-0-1-0-0-0-0-0-6-3-0-1-4-0-8-5-0-----0--||----|


  TPTPTPTP    PM------|       PM--|   PM------|
            |----------------------3----------------------|
  Q Q Q Q   E E E E E E E E E E E E E E E E E E E E E E E E
|---------|-------------------------------------------------|----|
|---------|-------------------------------------------------|----|
|---------|-3-----------3---4-------3-----------------------|----|
|---------|-3-----------3---4-------3-----------4-3---7-8---|----|
|-----4---|-1-----------1---2-------1-----------2-1---5-6---|----|
|-6-3---1-|---0-0-0-0-0---0---0-0-0---0-0-0-0-0-2-1-0-5-6-0-|----|


      PM------|       PM--|     PM------|
    |-----------------------3-----------------------|
    E E E E E E E E E E E E   E E E E E E E E E E E E
||--------------------------|--------------------------||----|
||o-------------------------|-------------------------o||----|
||--3-----------3---4-------|-3------------------------||----|
||--3-----------3---4-------|-3-----------4-3---7-8----||----|
||o-1-----------1---2-------|-1-----------2-1---5-6---o||----|
||----0-0-0-0-0---0---0-0-0-|---0-0-0-0-0-2-1-0-5-6-0--||----|


    PM------|       PM--|   TP TP TP TP
  |----------3----------|                  |-------3-------|
  E E E E E E E E E E E E   Q  Q  Q  Q   Q E E E E E E E E E
|-------------------------|------------|---------------------|----|
|-------------------------|------------|---------------------|----|
|-3-----------3---4-------|------------|---------------------|----|
|-3-----------3---4-------|------------|-3-------------------|----|
|-1-----------1---2-------|-------4----|-3-------------------|----|
|---0-0-0-0-0---0---0-0-0-|-6--3-----1-|-1-0-0-0-0-0-0-0-0-0-|----|


  PM--------|
  |----3----|       |3| |-3-| |3| |---3---|   |3| |-3-| |3| |3| |-3-|
  Q Q Q Q Q Q       E E E E E E E E E E E E   E E E E E E E E E E E E
|-------------|-||--------------------------|---------------------------|
|-------------|-||o-------------------------|---------------------------|
|-------------|-||--------------------------|---------------------------|
|-------------|-||--8-7---------3-----------|-8-7---------3-----5-6-----|
|-2-2-2-2-2-2-|-||o-6-5---------3-----------|-6-5---------3-----5-6-----|
|-0-0-0-0-0-0-|-||--6-5-0-0-0-0-1-0-0-0-0-0-|-6-5-0-0-0-0-1-0-0-3-4-0---|


                            PM--------------------|
  |3| |-3-| |3| |---3---|   |----------3----------|
  E E E E E E E E E E E E   E E E E E E E E E E E E
|-------------------------|--------------------------||----|
|-------------------------|-------------------------o||----|
|-------------------------|--------------------------||----|
|-8-7---------3-----------|--------------------------||----|
|-6-5---------3-----------|-------------------3-6---o||----|
|-6-5-0-0-0-0-1-0-0-0-0-0-|-6-3-0-1-4-0-8-5-0-----0--||----|


      PM------|       PM--|     PM------|
    |-----------------------3-----------------------|
    E E E E E E E E E E E E   E E E E E E E E E E E E
||--------------------------|--------------------------||----|
||o-------------------------|-------------------------o||----|
||--3-----------3---4-------|-3------------------------||----|
||--3-----------3---4-------|-3-----------4-3---7-8----||----|
||o-1-----------1---2-------|-1-----------2-1---5-6---o||----|
||----0-0-0-0-0---0---0-0-0-|---0-0-0-0-0-2-1-0-5-6-0--||----|


  PM--------------|      PM--------------|      PM--------------|
  |-------3-------|      |-------3-------|      |-------3-------|
  E E E E E E E E E Q    E E E E E E E E E Q    E E E E E E E E E Q
|----------------------|----------------------|----------------------|
|----------------------|----------------------|----------------------|
|----------------------|----------------------|----------------------|
|-------------------9--|-------------------8--|-------------------9--|
|-------------------7--|-------------------6--|-------------------7--|
|-6-3-0-1-4-0-6-3-0-7--|-6-3-0-1-4-0-6-3-0-6--|-6-3-0-1-4-0-6-3-0-7--|


  PM----------------|
  |-------3-------|
  E E E E E E E E E E E
|-----------------------*|----|
|-----------------------*|----|
|-----------------------*|----|
|-------------------8---*|----|
|-------------------6---*|----|
|-6-3-0-1-4-0-6-3-0-6-x-*|----|



Duration Legend
---------------
W - whole; H - half; Q - quarter; E - 8th; S - 16th; T - 32nd; X - 64th; a - acciaccatura
+ - note tied to previous; . - note dotted; .. - note double dotted
Uncapitalized letters represent notes that are staccato (1/2 duration)
Irregular groupings are notated above the duration line
Duration letters will always appear directly above the note/fret number it represents the
duration for.  Duration letters with no fret number below them represent rests.  Multi-
bar rests are notated in the form Wxn, where n is the number of bars to rest for.  Low
melody durations appear below the staff

Tablature Legend
----------------
 h   - hammer-on
 p   - pull-off
 b   - bend
 pb  - pre-bend
 r   - bend release (if no number after the r, then release immediately)
 /\  - slide into or out of (from/to "nowhere")
 s   - legato slide
 S   - shift slide
 - natural harmonic
[n]  - artificial harmonic
n(n) - tapped harmonic
 ~   - vibrato
 tr  - trill
 T   - tap
 TP  - trem. picking
 PM  - palm muting
\n/  - tremolo bar dip; n = amount to dip
 \n  - tremolo bar down
 n/  - tremolo bar up
/n\  - tremolo bar inverted dip
 =   - hold bend; also acts as connecting device for hammers/pulls
 <> - volume swell (louder/softer)
 x   - on rhythm slash represents muted slash
 o   - on rhythm slash represents single note slash

Misc Legend
-----------
 |  - bar
||  - double bar
||o - repeat start
o|| - repeat end
*|  - double bar (ending)
 :  - bar (freetime)
 $  - Segno
 &  - Coda
Tempo markers -  = BPM(8/16=s8/s16), where s8 = swing 8ths, s16 = swing 16ths


** Generated using Power Tab Editor by Brad Larsen: The Official Power Tab Web Site
Tap to rate this tab
 
# A B C D E F G H I J K L M N O P Q R S T U V W X Y Z