Song name
# A B C D E F G H I J K L M N O P Q R S T U V W X Y Z

Masticator - Flesh Feeder tab

#----------------------------------PLEASE NOTE---------------------------------#
#This file is the author's own work and represents their interpretation of the #
#song. You may only use this file for private study, scholarship, or research. #
#------------------------------------------------------------------------------#

FLESH FEEDER
As recorded by Masticator
(From the 2009 Album INTERNAL INVERSION)

Transcribed by Mike Dickson
	

Words and Music by Mike Dickson
Arranged by Mike Dickson & Dan Simpson

Gtr I (D A D G B E) - 'Untitled'
Gtr II (D A D G B E) - 'Untitled'

  Q=115
 4/8
  Gtr I
  PMTP TPTPTPTPTP  PMTP TPPM--------| TP TPTPTPTPTP  PMTP TPPM----|
  E Q  E E E E E   E Q  E E E E E   E Q  E E E E E   E Q  E E E E E
|----------------|----------------|----------------|-----------------|
|----------------|----------------|----------------|-----------------|
|--------3-------|----------------|--------3-------|-----------------|
|---1--0---2-3---|---1--4---------|---1--0---2-3---|---1--4----------|
|-0------------4-|-1------4-5-2-1-|-0------------4-|-1------4-5-2-1--|
|-0--------------|-1------6-7-4-3-|-0--------------|-1------6-7-4-3--|
|
| Gtr II
| PM               PM     PM--------|                PM     PM----|
| E Q  E E E E E   E Q  E E E E E   E Q  E E E E E   E Q  E E E E E
|----------------|----------------|----------------|-----------------|
|----------------|----------------|----------------|-----------------|
|--------x-------|----------------|--------x-------|-----------------|
|---x--x---x-x---|---x--x---------|---x--x---x-x---|---x--x----------|
|-0------------x-|-1------4-5-2-1-|-0------------x-|-1------4-5-2-1--|
|-0--------------|-1------6-7-4-3-|-0--------------|-1------6-7-4-3--|


  PMTP TPTPTPTPTP  PMTP TPPM--------| TP TPTPTPTPTP  PMTP TPPM----|
  E Q  E E E E E   E Q  E E E E E   E Q  E E E E E   E Q  E E E E E
|----------------|----------------|----------------|----------------|
|----------------|----------------|----------------|----------------|
|--------3-------|----------------|--------3-------|----------------|
|---1--0---2-3---|---1--4---------|---1--0---2-3---|---1--4---------|
|-0------------4-|-1------4-5-2-1-|-0------------4-|-1------4-5-2-1-|
|-0--------------|-1------6-7-4-3-|-0--------------|-1------6-7-4-3-|
|
| Gtr II
| PMTP TPTPTPTPTP  PMTP TPPM--------| TP TPTPTPTPTP  PMTP TPPM----|
| E Q  E E E E E   E Q  E E E E E   E Q  E E E E E   E Q  E E E E E
|----------------|----------------|----------------|----------------|
|----------------|----------------|----------------|----------------|
|--------6-------|----------------|--------6-------|----------------|
|---4--3---5-6---|---4--7---------|---4--3---5-6---|---4--7---------|
|-0------------7-|-1------4-5-2-1-|-0------------7-|-1------4-5-2-1-|
|-0--------------|-1------6-7-4-3-|-0--------------|-1------6-7-4-3-|


  Gtr I
  PMTP PMTP PMTP PM--|
  E Q  E Q  E Q  E E  E
|---------------------------------------------------|
|---------------------------------------------------|
|---------------------------------------------------|
|---------------------------------------------------|
|-5-5--4-8--5-5--2-1--2-----------------------------|
|-7----6----7----4-3--4-----------------------------|
|
| Gtr II
| PM-------------------------------------------|
| S S  S S  S S  S S  S S  S S S S S S S S E E E
|---------------------------------------------------|
|---------------------------------------------------|
|---------------------------------------------------|
|---------------------------------------------------|
|------8----8--------11---11-------8---8---2-1-2----|
|-0-0----0----0--0-0----0----0-0-0---0---0-4-3-4----|


  Gtr I
  PM  TP      PM   TP       PM  TP   PM----|
  E   Q       E    Q        E   Q    E   E E
|-------------------------------------------------|
|-------------------------------------------------|
|-------------------------------------------------|
|-------------------------------------------------|
|-5---5-------4----8--------5---5----2---1-2------|
|-7-----------6-------------7--------4---3-4------|
|
| Gtr II
| PM-----------------------------------------|
| S S S S S S S S  S S  S S S S S S  S S E E E
|-------------------------------------------------|
|-------------------------------------------------|
|-------------------------------------------------|
|-------------------------------------------------|
|-----8---8-------11---11-------8----8---2-1-2----|
|-0-0---0---0-0-0----0----0-0-0---0----0-4-3-4----|


  Gtr I
  PM  TP      PM   TP       PM  TP   PM----|
  E   Q       E    Q        E   Q    E   E E
|-------------------------------------------------|
|-------------------------------------------------|
|-------------------------------------------------|
|-------------------------------------------------|
|-5---5-------4----8--------5---5----2---1-2------|
|-7-----------6-------------7--------4---3-4------|
|
| Gtr II
| PM-----------------------------------------|
| S S S S S S S S  S S  S S S S S S  S S E E E
|-------------------------------------------------|
|-------------------------------------------------|
|-------------------------------------------------|
|-------------------------------------------------|
|-----8---8-------11---11-------8----8---2-1-2----|
|-0-0---0---0-0-0----0----0-0-0---0----0-4-3-4----|


  Gtr I
  PM  TP      PM   TP       PM  TP   PM----|
  E   Q       E    Q        E   Q    E   E E
|-------------------------------------------------|
|-------------------------------------------------|
|-------------------------------------------------|
|-------------------------------------------------|
|-5---5-------4----8--------5---5----2---1-2------|
|-7-----------6-------------7--------4---3-4------|
|
| Gtr II
| PM-----------------------------------------|
| S S S S S S S S  S S  S S S S S S  S S E E E
|-------------------------------------------------|
|-------------------------------------------------|
|-------------------------------------------------|
|-------------------------------------------------|
|-----8---8-------11---11-------8----8---2-1-2----|
|-0-0---0---0-0-0----0----0-0-0---0----0-4-3-4----|


  Gtrs I, II
  PMTPTPTPTPTPPMTP  TPPM----| TPTPTP  TPTPPMTPTPPM--|
  E E E E E E E E   E E E E E E E E   E E E E E E E E
|-----------------|-----------------|-----------------|----|
|-----------------|-----------------|-----------------|----|
|-----------------|-----------------|-----------------|----|
|-------3-0-1-----|---------------3-|-0-1-------------|----|
|-0-5-4-------0-5-|-4-5-2-1-0-5-4---|-----0-5-4-5-2-1-|----|
|-0-----------0---|---7-4-3-0-------|-----0-----7-4-3-|----|


  Gtr I
  PMTPTPTPTPTPPMTP  TPPM----| TPTPTP  TPTPPMTPTPPM--|
  E E E E E E E E   E E E E E E E E   E E E E E E E E
|-----------------|-----------------|--------------------|
|-----------------|-----------------|--------------------|
|-----------------|-----------------|--------------------|
|-------6-3-4-----|---------------6-|-3-4----------------|
|-0-8-7-------0-8-|-7-5-2-1-0-8-7---|-----0-8-7-5-2-1----|
|-0-----------0---|---7-4-3-0-------|-----0-----7-4-3----|
|
| Gtr II
| PMTPTPTPTPTPPMTP  TPPM----| TPTPTP  TPTPPMTPTPPM--|
| E E E E E E E E   E E E E E E E E   E E E E E E E E
|-----------------|-----------------|--------------------|
|-----------------|-----------------|--------------------|
|-----------------|-----------------|--------------------|
|-------3-0-1-----|---------------3-|-0-1----------------|
|-0-5-4-------0-5-|-4-5-2-1-0-5-4---|-----0-5-4-5-2-1----|
|-0-----------0---|---7-4-3-0-------|-----0-----7-4-3----|


  Gtrs I, II
  PM|         PM|           PM|         PM--|
  S S S S S S S S  S S  S S S S S S S S E E E
|------------------------------------------------|
|------------------------------------------------|
|------------------------------------------------|
|-----7---7-------11---11-------7---7------------|
|-------5---5--------8----8-------5---5-8-7-1----|
|-0-0---------0-0-----------0-0---------8-7-1----|


  Gtr I
  PM|         PM|           PM|           PM--|
  S S S S S S S S  S S  S S S S S S   S S E E E
|-----------------------------------|--------------|
|-----------------------------------|--------------|
|-----5---5-------10---10-------5---|-5------------|
|-------3---3--------8----8-------3-|---3----------|
|-----------------------------------|-----8-7-1----|
|-0-0---------0-0-----------0-0-----|-----8-7-1----|
|
| Gtr II
| PM|         PM|           PM|           PM--|
| S S S S S S S S  S S  S S S S S S   S S E E E
|-----------------------------------|--------------|
|-----------------------------------|--------------|
|-----------------------------------|--------------|
|-----7---7-------11---11-------7---|-7------------|
|-------5---5--------8----8-------5-|---5-8-7-1----|
|-0-0---------0-0-----------0-0-----|-----8-7-1----|


  Gtr I
  PM  TP      PM   TP       PM  TP  PM--|
  E   Q       E    Q        E   Q   E E E
|------------------------------------------------------|
|------------------------------------------------------|
|------------------------------------------------------|
|------------------------------------------------------|
|-5---5-------4----8--------5---5---2-1-2--------------|
|-7-----------6-------------7-------4-3-4--------------|
|
| Gtr II
| PM----------------------------------------------|
| S S S S S S S S  S S  S S S S S S       S S E E E
|------------------------------------------------------|
|------------------------------------------------------|
|------------------------------------------------------|
|------------------------------------------------------|
|-----8---8-------11---11-------8---------8---2-1-2----|
|-0-0---0---0-0-0----0----0-0-0---0---------0-4-3-4----|


  Gtr I
  PM  TP      PM   TP       PM  TP   PM----|
  E   Q       E    Q        E   Q    E   E E
|-------------------------------------------------|
|-------------------------------------------------|
|-------------------------------------------------|
|-------------------------------------------------|
|-5---5-------4----8--------5---5----2---1-2------|
|-7-----------6-------------7--------4---3-4------|
|
| Gtr II
| PM-----------------------------------------|
| S S S S S S S S  S S  S S S S S S  S S E E E
|-------------------------------------------------|
|-------------------------------------------------|
|-------------------------------------------------|
|-------------------------------------------------|
|-----8---8-------11---11-------8----8---2-1-2----|
|-0-0---0---0-0-0----0----0-0-0---0----0-4-3-4----|


  Gtr I
  PM  TP      PM   TP       PM  TP   PM----|
  E   Q       E    Q        E   Q    E   E E
|-------------------------------------------------|
|-------------------------------------------------|
|-------------------------------------------------|
|-------------------------------------------------|
|-5---5-------4----8--------5---5----2---1-2------|
|-7-----------6-------------7--------4---3-4------|
|
| Gtr II
| PM-----------------------------------------|
| S S S S S S S S  S S  S S S S S S  S S E E E
|-------------------------------------------------|
|-------------------------------------------------|
|-------------------------------------------------|
|-------------------------------------------------|
|-----8---8-------11---11-------8----8---2-1-2----|
|-0-0---0---0-0-0----0----0-0-0---0----0-4-3-4----|


  Gtr I
  PM  TP      PM   TP       PM  TP   PM----|
  E   Q       E    Q        E   Q    E   E E
|-------------------------------------------------|
|-------------------------------------------------|
|-------------------------------------------------|
|-------------------------------------------------|
|-5---5-------4----8--------5---5----2---1-2------|
|-7-----------6-------------7--------4---3-4------|
|
| Gtr II
| PM-----------------------------------------|
| S S S S S S S S  S S  S S S S S S  S S E E E
|-------------------------------------------------|
|-------------------------------------------------|
|-------------------------------------------------|
|-------------------------------------------------|
|-----8---8-------11---11-------8----8---2-1-2----|
|-0-0---0---0-0-0----0----0-0-0---0----0-4-3-4----|


  Gtrs I, II
  PMTPTPTPTPTPPMTP  TPPM----| TPTPTP  TPTPPMTPTPPM--|
  E E E E E E E E   E E E E E E E E   E E E E E E E E
|-----------------|-----------------|--------------------|
|-----------------|-----------------|--------------------|
|-----------------|-----------------|--------------------|
|-------3-0-1-----|---------------3-|-0-1----------------|
|-0-5-4-------0-5-|-4-5-2-1-0-5-4---|-----0-5-4-5-2-1----|
|-0-----------0---|---7-4-3-0-------|-----0-----7-4-3----|


  Gtr I
  PMTPTPTPTPTPPMTP  TPPM----| TPTPTP  TPTPPMTPTPPM--|
  E E E E E E E E   E E E E E E E E   E E E E E E E E
|-----------------|-----------------|--------------------|
|-----------------|-----------------|--------------------|
|-----------------|-----------------|--------------------|
|-------6-3-4-----|---------------6-|-3-4----------------|
|-0-8-7-------0-8-|-7-5-2-1-0-8-7---|-----0-8-7-5-2-1----|
|-0-----------0---|---7-4-3-0-------|-----0-----7-4-3----|
|
| Gtr II
| PMTPTPTPTPTPPMTP  TPPM----| TPTPTP  TPTPPMTPTPPM--|
| E E E E E E E E   E E E E E E E E   E E E E E E E E
|-----------------|-----------------|--------------------|
|-----------------|-----------------|--------------------|
|-----------------|-----------------|--------------------|
|-------3-0-1-----|---------------3-|-0-1----------------|
|-0-5-4-------0-5-|-4-5-2-1-0-5-4---|-----0-5-4-5-2-1----|
|-0-----------0---|---7-4-3-0-------|-----0-----7-4-3----|


  Gtrs I, II
  PM|         PM|           PM|           PM--|
  S S S S S S S S  S S  S S S S S S   S S E E E
|-----------------------------------|--------------|
|-----------------------------------|--------------|
|-----------------------------------|--------------|
|-----7---7-------11---11-------7---|-7------------|
|-------5---5--------8----8-------5-|---5-8-7-1----|
|-0-0---------0-0-----------0-0-----|-----8-7-1----|


  Gtr I
  PM|         PM|           PM|           PM--|
  S S S S S S S S  S S  S S S S S S   S S E E E
|-----------------------------------|--------------|
|-----------------------------------|--------------|
|-----5---5-------10---10-------5---|-5------------|
|-------3---3--------8----8-------3-|---3----------|
|-----------------------------------|-----8-7-1----|
|-0-0---------0-0-----------0-0-----|-----8-7-1----|
|
| Gtr II
| PM|         PM|           PM|           PM--|
| S S S S S S S S  S S  S S S S S S   S S E E E
|-----------------------------------|--------------|
|-----------------------------------|--------------|
|-----------------------------------|--------------|
|-----7---7-------11---11-------7---|-7------------|
|-------5---5--------8----8-------5-|---5-8-7-1----|
|-0-0---------0-0-----------0-0-----|-----8-7-1----|


  Gtrs I, II
  S S S S S S S S S S S S S S S S S S  S S S S S S
|-----------------------------------------------------|
|-----------------------------------------------------|
|-----------------------------------------------------|
|-0---7---6---2---7---6---3---7---6---10---6---9------|
|-----------------------------------------------------|
|---0---0---0---0---0---0---0---0---0----0---0---0----|


  Gtrs I, II
  PM----------------| TP TP
  E E E E E E E E   E Q  E
|-----------------|-----------|
|-----------------|-----------|
|-----------------|-----------|
|-----------------|-----------|
|-4-5-0-2-1-2-4-5-|-0-5--6----|
|-6-7-0-4-3-4-6-7-|-0---------|


  Gtrs I, II
  S S S S S S S S S S S S S S S S   S S  S S S S S S
|---------------------------------|---------------------|
|---------------------------------|---------------------|
|---------------------------------|---------------------|
|-0---7---6---2---7---6---3---7---|-6---10---6---9------|
|---------------------------------|---------------------|
|---0---0---0---0---0---0---0---0-|---0----0---0---0----|


  Gtrs I, II
  PM----------------| TP TP
  E E E E E E E E   E Q  E
|-----------------|-----------|
|-----------------|-----------|
|-----------------|-----------|
|-----------------|-----------|
|-4-5-0-2-1-2-4-5-|-0-5--8----|
|-6-7-0-4-3-4-6-7-|-0---------|


  Gtrs I, II
  S S S S S S S S S S S S S S S S   S S  S S S S S S
|---------------------------------|---------------------|
|---------------------------------|---------------------|
|---------------------------------|---------------------|
|-0---7---6---2---7---6---3---7---|-6---10---6---9------|
|---------------------------------|---------------------|
|---0---0---0---0---0---0---0---0-|---0----0---0---0----|


  Gtr I
  PM----------------| TP TP
  E E E E E E E E   E Q  E
|-----------------|-----------|
|-----------------|-----------|
|-----------------|-----------|
|-----------------|-----------|
|-4-5-0-2-1-2-4-5-|-0-8--9----|
|-6-7-0-4-3-4-6-7-|-0---------|
|
| Gtr II
| PM----------------| TP TP
| E E E E E E E E   E Q  E
|-----------------|-----------|
|-----------------|-----------|
|-----------------|-----------|
|-----------------|-----------|
|-4-5-0-2-1-2-4-5-|-0-5--6----|
|-6-7-0-4-3-4-6-7-|-0---------|


  Gtrs I, II
  S S S S S S S S S S S S S S S S   S S  S S S S S S
|---------------------------------|---------------------|
|---------------------------------|---------------------|
|---------------------------------|---------------------|
|-0---7---6---2---7---6---3---7---|-6---10---6---9------|
|---------------------------------|---------------------|
|---0---0---0---0---0---0---0---0-|---0----0---0---0----|


  Gtr I
  PM----------------| TP  TP
  E E E E E E E E   E Q   E
|-----------------|------------|
|-----------------|------------|
|-----------------|------------|
|-----------------|------------|
|-4-5-0-2-1-2-4-5-|-0-8--11----|
|-6-7-0-4-3-4-6-7-|-0----------|
|
| Gtr II
| PM----------------| TP  TP
| E E E E E E E E   E Q   E
|-----------------|------------|
|-----------------|------------|
|-----------------|------------|
|-----------------|------------|
|-4-5-0-2-1-2-4-5-|-0-5---6----|
|-6-7-0-4-3-4-6-7-|-0----------|


  Gtr I
  PM----------------| TP TPPM----------------| TP  TP
  E E E E E E E E   E Q  E E E E E   E E E E E Q   E
|-----------------|----------------|--------------------|
|-----------------|----------------|--------------------|
|-----------------|----------------|--------------------|
|-----------------|----------------|--------------------|
|-4-5-0-2-1-2-4-5-|-0-8--9-4-5-0-2-|-1-2-4-5-0-8--11----|
|-6-7-0-4-3-4-6-7-|-0------6-7-0-4-|-3-4-6-7-0----------|
|
| Gtr II
| PM----------------| TP TPPM----------------| TP  TP
| E E E E E E E E   E Q  E E E E E   E E E E E Q   E
|-----------------|----------------|--------------------|
|-----------------|----------------|--------------------|
|-----------------|----------------|--------------------|
|-----------------|----------------|--------------------|
|-4-5-0-2-1-2-4-5-|-0-5--6-4-5-0-2-|-1-2-4-5-0-5---8----|
|-6-7-0-4-3-4-6-7-|-0------6-7-0-4-|-3-4-6-7-0----------|


  Gtr I
  PM----------------| TP TPPM----------------| TP  TP
  E E E E E E E E   E Q  E E E E E   E E E E E Q   E
|-----------------|----------------|--------------------|
|-----------------|----------------|--------------------|
|-----------------|----------------|--------------------|
|-----------------|----------------|--------------------|
|-4-5-0-2-1-2-4-5-|-0-8--9-4-5-0-2-|-1-2-4-5-0-8--11----|
|-6-7-0-4-3-4-6-7-|-0------6-7-0-4-|-3-4-6-7-0----------|
|
| Gtr II
| PM----------------| TP TPPM----------------| TP  TP
| E E E E E E E E   E Q  E E E E E   E E E E E Q   E
|-----------------|----------------|--------------------|
|-----------------|----------------|--------------------|
|-----------------|----------------|--------------------|
|-----------------|----------------|--------------------|
|-4-5-0-2-1-2-4-5-|-0-5--6-4-5-0-2-|-1-2-4-5-0-5---8----|
|-6-7-0-4-3-4-6-7-|-0------6-7-0-4-|-3-4-6-7-0----------|


  Gtrs I, II
  PMTP TPTPTPTPTP  PMTP TPPM--------| TP TPTPTPTPTP  PMTP TPPM----|
  E Q  E E E E E   E Q  E E E E E   E Q  E E E E E   E Q  E E E E E
|----------------|----------------|----------------|----------------|
|----------------|----------------|----------------|----------------|
|--------3-------|----------------|--------3-------|----------------|
|---1--0---2-3---|---1--4---------|---1--0---2-3---|---1--4---------|
|-0------------4-|-1------4-5-2-1-|-0------------4-|-1------4-5-2-1-|
|-0--------------|-1------6-7-4-3-|-0--------------|-1------6-7-4-3-|



Duration Legend
---------------
W - whole; H - half; Q - quarter; E - 8th; S - 16th; T - 32nd; X - 64th; a - acciaccatura
+ - note tied to previous; . - note dotted; .. - note double dotted
Uncapitalized letters represent notes that are staccato (1/2 duration)
Irregular groupings are notated above the duration line
Duration letters will always appear directly above the note/fret number it represents the
duration for.  Duration letters with no fret number below them represent rests.  Multi-
bar rests are notated in the form Wxn, where n is the number of bars to rest for.  Low
melody durations appear below the staff

Tablature Legend
----------------
 h   - hammer-on
 p   - pull-off
 b   - bend
 pb  - pre-bend
 r   - bend release (if no number after the r, then release immediately)
 /\  - slide into or out of (from/to "nowhere")
 s   - legato slide
 S   - shift slide
 - natural harmonic
[n]  - artificial harmonic
n(n) - tapped harmonic
 ~   - vibrato
 tr  - trill
 T   - tap
 TP  - trem. picking
 PM  - palm muting
\n/  - tremolo bar dip; n = amount to dip
 \n  - tremolo bar down
 n/  - tremolo bar up
/n\  - tremolo bar inverted dip
 =   - hold bend; also acts as connecting device for hammers/pulls
 <> - volume swell (louder/softer)
 x   - on rhythm slash represents muted slash
 o   - on rhythm slash represents single note slash

Misc Legend
-----------
 |  - bar
||  - double bar
||o - repeat start
o|| - repeat end
*|  - double bar (ending)
 :  - bar (freetime)
 $  - Segno
 &  - Coda
Tempo markers -  = BPM(8/16=s8/s16), where s8 = swing 8ths, s16 = swing 16ths


** Generated using Power Tab Editor by Brad Larsen: The Official Power Tab Web Site
Tap to rate this tab
# A B C D E F G H I J K L M N O P Q R S T U V W X Y Z