Song name
# A B C D E F G H I J K L M N O P Q R S T U V W X Y Z

Masticator - Internal Inversion tab

#----------------------------------PLEASE NOTE---------------------------------#
#This file is the author's own work and represents their interpretation of the #
#song. You may only use this file for private study, scholarship, or research. #
#------------------------------------------------------------------------------#

INTERNAL INVERSION
As recorded by Masticator
(From the 2009 Album INTERNAL INVERSION)


	

Words and Music by Mike Dickson

Gtr I (D A D G B E) - 'Untitled'
Gtr II (E A D G B E) - 'Untitled'

  Q=140
  Gtr I
  PM--------------------------------------------|
  E E E E E E E E E E E E E E E E E E E E E E E E
|----------------------------------------------------|
|----------------------------------------------------|
|----------------------------------------------------|
|----------------------------------------------------|
|-3-4-3-1-5-4-3-4-3-1-5-4-3-4-3-1-5-4-3-4-3-1-5-4----|
|-3-4-3-1-5-4-3-4-3-1-5-4-3-4-3-1-5-4-3-4-3-1-5-4----|


  E E E E E E E E   E E E E E E E E   E E E E E E E E
|-----------------|-----------------|--------------------|
|-----------------|-----------------|--------------------|
|-----------------|-----------------|--------------------|
|-----------------|-----------------|--------------------|
|-3-4-3-1-5-4-3-4-|-3-1-5-4-3-4-3-1-|-5-4-3-4-3-1-5-4----|
|-3-4-3-1-5-4-3-4-|-3-1-5-4-3-4-3-1-|-5-4-3-4-3-1-5-4----|


  TPTPTPTPTPTPTPTPTPTPTPTPTPTPTPTPTPTP
  S S S S S S S S S S S S S S S S S S S S S E
|------------------------------------------------|
|------------------------------------------------|
|-------------------------------------------6----|
|-------------------------------------------4----|
|-------5-5-5-4-4-4-------6-6-6-5-5-5-------4----|
|-3-3-3-------------2-2-2-------------1-1-1-4----|


  TPTPTPTPTPTPTPTPTPTPTPTPTPTPTPTP  TPTP
  S S S S S S S S S S S S S S S S   S S S S S E
|---------------------------------|----------------|
|---------------------------------|----------------|
|---------------------------------|-----------8----|
|---------------------------------|-----------6----|
|-------5-5-5-4-4-4-------6-6-6-5-|-5-5-------6----|
|-3-3-3-------------2-2-2---------|-----1-1-1-6----|


  TPTPTPTPTPTPTPTPTPTPTPTPTPTPTPTP  TPTP
  S S S S S S S S S S S S S S S S   S S S S S E
|---------------------------------|----------------|
|---------------------------------|----------------|
|---------------------------------|-----------6----|
|---------------------------------|-----------4----|
|-------5-5-5-4-4-4-------6-6-6-5-|-5-5-------4----|
|-3-3-3-------------2-2-2---------|-----1-1-1-4----|


  TPTPTPTPTPTPTPTPTPTPTPTPTPTPTPTP  TPTP
  S S S S S S S S S S S S S S S S   S S S S S E
|---------------------------------|----------------|
|---------------------------------|----------------|
|---------------------------------|-----------8----|
|---------------------------------|-----------6----|
|-------5-5-5-4-4-4-------6-6-6-5-|-5-5-------6----|
|-3-3-3-------------2-2-2---------|-----1-1-1-6----|


  TPTPTPTPTPTPTPTPTPTPTPTPTPTPTPTP  TPTP
  S S S S S S S S S S S S S S S S   S S S S S E
|---------------------------------|----------------|
|---------------------------------|----------------|
|---------------------------------|-----------6----|
|---------------------------------|-----------4----|
|-------5-5-5-4-4-4-------6-6-6-5-|-5-5-------4----|
|-3-3-3-------------2-2-2---------|-----1-1-1-4----|


  TPTPTPTPTPTPTPTPTPTPTPTPTPTPTPTP  TPTP
  S S S S S S S S S S S S S S S S   S S S S S E
|---------------------------------|----------------|
|---------------------------------|----------------|
|---------------------------------|-----------8----|
|---------------------------------|-----------6----|
|-------5-5-5-4-4-4-------6-6-6-5-|-5-5-------6----|
|-3-3-3-------------2-2-2---------|-----1-1-1-6----|


  TPTPTPTPTPTPTPTPTPTPTPTPTPTPTPTP  TPTP
  S S S S S S S S S S S S S S S S   S S S S S E
|---------------------------------|----------------|
|---------------------------------|----------------|
|---------------------------------|-----------6----|
|---------------------------------|-----------4----|
|-------5-5-5-4-4-4-------6-6-6-5-|-5-5-------4----|
|-3-3-3-------------2-2-2---------|-----1-1-1-4----|


  TPTPTPTPTPTPTPTPTPTPTPTPTPTPTPTP  TPTP
  S S S S S S S S S S S S S S S S   S S S S S E
|---------------------------------|----------------|
|---------------------------------|----------------|
|---------------------------------|-----------8----|
|---------------------------------|-----------6----|
|-------5-5-5-4-4-4-------6-6-6-5-|-5-5-------6----|
|-3-3-3-------------2-2-2---------|-----1-1-1-6----|


  TPTPTPTPTPTPTPTPTPTPTPTPTPTPTPTPTPTP
  S S S S S S S S S S S S S S S S S S
|----------------------------------------|
|----------------------------------------|
|----------------------------------------|
|----------------------------------------|
|-------5-5-5-4-4-4----------------------|
|-3-3-3-------------6-6-6-2-2-2-5-5-5----|


  TPTPTPTPTPTPTPTPTPTPTPTPTPTPTPTPTPTP
  S S S S S S S S S S S S S S S S S S
|----------------------------------------|
|----------------------------------------|
|-------1-1-1-0-0-0----------------------|
|-------------------2-2-2-3-3-3----------|
|----------------------------------------|
|-2-2-2-------------------------1-1-1----|


  TPTPTPTPTPTPTPTPTPTPTPTPTPTPTPTP  TPTP
  S S S S S S S S S S S S S S S S   S S
|---------------------------------|--------|
|---------------------------------|--------|
|---------------------------------|--------|
|---------------------------------|--------|
|-------5-5-5-4-4-4---------------|--------|
|-3-3-3-------------6-6-6-2-2-2-5-|-5-5----|


  TPTPTPTPTPTPTPTPTPTPTPTPTPTPTPTP  TPTP
  S S S S S S S S S S S S S S S S   S S
|---------------------------------|--------|
|---------------------------------|--------|
|-------1-1-1-0-0-0---------------|--------|
|-------------------2-2-2-3-3-3---|--------|
|---------------------------------|--------|
|-2-2-2-------------------------1-|-1-1----|


  TPTPTPTPTPTPTPTPTPTPTPTPTPTPTPTP  TPTP
  S S S S S S S S S S S S S S S S   S S
|---------------------------------|--------|
|---------------------------------|--------|
|---------------------------------|--------|
|---------------------------------|--------|
|-------5-5-5-4-4-4---------------|--------|
|-3-3-3-------------6-6-6-2-2-2-5-|-5-5----|


  TPTPTPTPTPTPTPTPTPTPTPTPTPTPTPTP  TPTP
  S S S S S S S S S S S S S S S S   S S
|---------------------------------|--------|
|---------------------------------|--------|
|-------1-1-1-0-0-0---------------|--------|
|-------------------2-2-2-3-3-3---|--------|
|---------------------------------|--------|
|-2-2-2-------------------------1-|-1-1----|


  TPTPTPTPTPTPTPTPTPTPTPTPTPTPTPTP  TPTP
  S S S S S S S S S S S S S S S S   S S
|---------------------------------|--------|
|---------------------------------|--------|
|---------------------------------|--------|
|---------------------------------|--------|
|-------5-5-5-4-4-4---------------|--------|
|-3-3-3-------------6-6-6-2-2-2-5-|-5-5----|


  TPTPTPTPTPTPTPTPTPTPTPTPTPTPTPTP  TPTP
  S S S S S S S S S S S S S S S S   S S
|---------------------------------|--------|
|---------------------------------|--------|
|-------1-1-1-0-0-0---------------|--------|
|-------------------2-2-2-3-3-3---|--------|
|---------------------------------|--------|
|-2-2-2-------------------------1-|-1-1----|


  PM--------------------------------------------|
  E E E E E E E E E E E E E E E E E E E E E E E E
|----------------------------------------------------|
|----------------------------------------------------|
|----------------------------------------------------|
|----------------------------------------------------|
|-4-3-2-3-2-1-4-3-2-3-2-1-4-3-2-3-2-1-4-3-2-3-2-1----|
|-4-3-2-3-2-1-4-3-2-3-2-1-4-3-2-3-2-1-4-3-2-3-2-1----|


  E E E E E E E E E E E E E E E E   E E E E E E E E
|---------------------------------|--------------------|
|---------------------------------|--------------------|
|---------------------------------|--------------------|
|---------------------------------|--------------------|
|-4-3-2-3-2-1-4-3-2-3-2-1-4-3-2-3-|-2-1-4-3-2-3-2-1----|
|-4-3-2-3-2-1-4-3-2-3-2-1-4-3-2-3-|-2-1-4-3-2-3-2-1----|


  TPTPTPTPTPTPTPTPTPTPTPTPTPTPTPTP  TPTP
  S S S S S S S S S S S S S S S S   S S S S S E
|---------------------------------|----------------|
|---------------------------------|----------------|
|---------------------------------|-----------6----|
|---------------------------------|-----------4----|
|-------5-5-5-4-4-4-------6-6-6-5-|-5-5-------4----|
|-3-3-3-------------2-2-2---------|-----1-1-1-4----|


  TPTPTPTPTPTPTPTPTPTPTPTPTPTPTPTP  TPTP
  S S S S S S S S S S S S S S S S   S S S S S E
|---------------------------------|----------------|
|---------------------------------|----------------|
|---------------------------------|-----------8----|
|---------------------------------|-----------6----|
|-------5-5-5-4-4-4-------6-6-6-5-|-5-5-------6----|
|-3-3-3-------------2-2-2---------|-----1-1-1-6----|


  TPTPTPTPTPTPTPTPTPTPTPTPTPTPTPTP  TPTP
  S S S S S S S S S S S S S S S S   S S S S S E
|---------------------------------|----------------|
|---------------------------------|----------------|
|---------------------------------|-----------6----|
|---------------------------------|-----------4----|
|-------5-5-5-4-4-4-------6-6-6-5-|-5-5-------4----|
|-3-3-3-------------2-2-2---------|-----1-1-1-4----|


  TPTPTPTPTPTPTPTPTPTPTPTPTPTPTPTP  TPTP
  S S S S S S S S S S S S S S S S   S S S S S E
|---------------------------------|----------------|
|---------------------------------|----------------|
|---------------------------------|-----------8----|
|---------------------------------|-----------6----|
|-------5-5-5-4-4-4-------6-6-6-5-|-5-5-------6----|
|-3-3-3-------------2-2-2---------|-----1-1-1-6----|


  TPTPTPTPTPTPTPTPTPTPTPTPTPTPTPTP  TPTP
  S S S S S S S S S S S S S S S S   S S S S S E
|---------------------------------|----------------|
|---------------------------------|----------------|
|---------------------------------|-----------6----|
|---------------------------------|-----------4----|
|-------5-5-5-4-4-4-------6-6-6-5-|-5-5-------4----|
|-3-3-3-------------2-2-2---------|-----1-1-1-4----|


  TPTPTPTPTPTPTPTPTPTPTPTPTPTPTPTP  TPTP
  S S S S S S S S S S S S S S S S   S S S S S E
|---------------------------------|----------------|
|---------------------------------|----------------|
|---------------------------------|-----------8----|
|---------------------------------|-----------6----|
|-------5-5-5-4-4-4-------6-6-6-5-|-5-5-------6----|
|-3-3-3-------------2-2-2---------|-----1-1-1-6----|


  TPTPTPTPTPTPTPTPTPTPTPTPTPTPTPTP  TPTP
  S S S S S S S S S S S S S S S S   S S S S S E
|---------------------------------|----------------|
|---------------------------------|----------------|
|---------------------------------|-----------6----|
|---------------------------------|-----------4----|
|-------5-5-5-4-4-4-------6-6-6-5-|-5-5-------4----|
|-3-3-3-------------2-2-2---------|-----1-1-1-4----|


  TPTPTPTPTPTPTPTPTPTPTPTPTPTPTPTP  TPTP
  S S S S S S S S S S S S S S S S   S S S S S E
|---------------------------------|----------------|
|---------------------------------|----------------|
|---------------------------------|-----------8----|
|---------------------------------|-----------6----|
|-------5-5-5-4-4-4-------6-6-6-5-|-5-5-------6----|
|-3-3-3-------------2-2-2---------|-----1-1-1-6----|


  TPTPTPTPTPTPTPTPTPTPTPTPTPTPTPTP  TPTP
  S S S S S S S S S S S S S S S S   S S
|---------------------------------|--------|
|---------------------------------|--------|
|---------------------------------|--------|
|---------------------------------|--------|
|-------5-5-5-4-4-4---------------|--------|
|-3-3-3-------------6-6-6-2-2-2-5-|-5-5----|


  TPTPTPTPTPTPTPTPTPTPTPTPTPTPTPTP  TPTP
  S S S S S S S S S S S S S S S S   S S
|---------------------------------|--------|
|---------------------------------|--------|
|-------1-1-1-0-0-0---------------|--------|
|-------------------2-2-2-3-3-3---|--------|
|---------------------------------|--------|
|-2-2-2-------------------------1-|-1-1----|


  TPTPTPTPTPTPTPTPTPTPTPTPTPTPTPTP  TPTP
  S S S S S S S S S S S S S S S S   S S
|---------------------------------|--------|
|---------------------------------|--------|
|---------------------------------|--------|
|---------------------------------|--------|
|-------5-5-5-4-4-4---------------|--------|
|-3-3-3-------------6-6-6-2-2-2-5-|-5-5----|


  TPTPTPTPTPTPTPTPTPTPTPTPTPTPTPTP  TPTP
  S S S S S S S S S S S S S S S S   S S
|---------------------------------|--------|
|---------------------------------|--------|
|-------1-1-1-0-0-0---------------|--------|
|-------------------2-2-2-3-3-3---|--------|
|---------------------------------|--------|
|-2-2-2-------------------------1-|-1-1----|


  TPTPTPTPTPTPTPTPTPTPTPTPTPTPTPTP  TPTP
  S S S S S S S S S S S S S S S S   S S
|---------------------------------|--------|
|---------------------------------|--------|
|---------------------------------|--------|
|---------------------------------|--------|
|-------5-5-5-4-4-4---------------|--------|
|-3-3-3-------------6-6-6-2-2-2-5-|-5-5----|


  TPTPTPTPTPTPTPTPTPTPTPTPTPTPTPTP  TPTP
  S S S S S S S S S S S S S S S S   S S
|---------------------------------|--------|
|---------------------------------|--------|
|-------1-1-1-0-0-0---------------|--------|
|-------------------2-2-2-3-3-3---|--------|
|---------------------------------|--------|
|-2-2-2-------------------------1-|-1-1----|


  TPTPTPTPTPTPTPTPTPTPTPTPTPTPTPTP  TPTP
  S S S S S S S S S S S S S S S S   S S
|---------------------------------|--------|
|---------------------------------|--------|
|---------------------------------|--------|
|---------------------------------|--------|
|-------5-5-5-4-4-4---------------|--------|
|-3-3-3-------------6-6-6-2-2-2-5-|-5-5----|


  TPTPTPTPTPTPTPTPTPTPTPTPTPTPTPTP  TPTP
  S S S S S S S S S S S S S S S S   S S
|---------------------------------|--------|
|---------------------------------|--------|
|-------1-1-1-0-0-0---------------|--------|
|-------------------2-2-2-3-3-3---|--------|
|---------------------------------|--------|
|-2-2-2-------------------------1-|-1-1----|


  PM------------------------------------------------|
  E E E E E E E E   E E E E E E E E   E E E E E E E E
|-----------------|-----------------|--------------------|
|-----------------|-----------------|--------------------|
|-----------------|-----------------|--------------------|
|-----------------|-----------------|--------------------|
|-4-3-2-3-2-1-4-3-|-2-3-2-1-4-3-2-3-|-2-1-4-3-2-3-2-1----|
|-4-3-2-3-2-1-4-3-|-2-3-2-1-4-3-2-3-|-2-1-4-3-2-3-2-1----|


  E E E E E E E E   E E E E E E E E   E E E E E E E E
|-----------------|-----------------|--------------------|
|-----------------|-----------------|--------------------|
|-----------------|-----------------|--------------------|
|-----------------|-----------------|--------------------|
|-4-3-2-3-2-1-4-3-|-2-3-2-1-4-3-2-3-|-2-1-4-3-2-3-2-1----|
|-4-3-2-3-2-1-4-3-|-2-3-2-1-4-3-2-3-|-2-1-4-3-2-3-2-1----|


  TPTPTPTPTPTPTPTP  TPTPTPTPTPTPTPTP  TPTPTPTPTPTPTPTP
  E E E E E E E E   E E E E E E E E   E E E E E E E E
|-----------------|-----------------|--------------------|
|-----------------|-----------------|--------------------|
|-----------------|-----------------|--------------------|
|-----------------|-----------------|--------------------|
|-4-3-2-3-2-1-4-3-|-2-3-2-1-4-3-2-3-|-2-1-4-3-2-3-2-1----|
|-4-3-2-3-2-1-4-3-|-2-3-2-1-4-3-2-3-|-2-1-4-3-2-3-2-1----|


  TPTPTPTPTPTPTPTP  TPTPTPTPTPTPTPTP  TPTPTPTPTPTPTPTP
  E E E E E E E E   E E E E E E E E   E E E E E E E E
|-----------------|-----------------|--------------------|
|-----------------|-----------------|--------------------|
|-----------------|-----------------|--------------------|
|-----------------|-----------------|--------------------|
|-4-3-2-3-2-1-4-3-|-2-3-2-1-4-3-2-3-|-2-1-4-3-2-3-2-1----|
|-4-3-2-3-2-1-4-3-|-2-3-2-1-4-3-2-3-|-2-1-4-3-2-3-2-1----|


  TPTPTPTPTPTPTPTPTPTPTPTPTPTPTPTP  TPTP
  S S S S S S S S S S S S S S S S   S S S S S E
|---------------------------------|----------------|
|---------------------------------|----------------|
|---------------------------------|-----------6----|
|---------------------------------|-----------4----|
|-------5-5-5-4-4-4-------6-6-6-5-|-5-5-------4----|
|-3-3-3-------------2-2-2---------|-----1-1-1-4----|


  TPTPTPTPTPTPTPTPTPTPTPTPTPTPTPTP  TPTP
  S S S S S S S S S S S S S S S S   S S S S S E
|---------------------------------|----------------|
|---------------------------------|----------------|
|---------------------------------|-----------8----|
|---------------------------------|-----------6----|
|-------5-5-5-4-4-4-------6-6-6-5-|-5-5-------6----|
|-3-3-3-------------2-2-2---------|-----1-1-1-6----|


  TPTPTPTPTPTPTPTPTPTPTPTPTPTPTPTP  TPTP
  S S S S S S S S S S S S S S S S   S S S S S E
|---------------------------------|----------------|
|---------------------------------|----------------|
|---------------------------------|-----------6----|
|---------------------------------|-----------4----|
|-------5-5-5-4-4-4-------6-6-6-5-|-5-5-------4----|
|-3-3-3-------------2-2-2---------|-----1-1-1-4----|


  TPTPTPTPTPTPTPTPTPTPTPTPTPTPTPTP  TPTP
  S S S S S S S S S S S S S S S S   S S S S S E
|---------------------------------|----------------|
|---------------------------------|----------------|
|---------------------------------|-----------8----|
|---------------------------------|-----------6----|
|-------5-5-5-4-4-4-------6-6-6-5-|-5-5-------6----|
|-3-3-3-------------2-2-2---------|-----1-1-1-6----|


  TPTPTPTPTPTPTPTPTPTPTPTPTPTPTPTP  TPTP
  S S S S S S S S S S S S S S S S   S S S S S E
|---------------------------------|----------------|
|---------------------------------|----------------|
|---------------------------------|-----------6----|
|---------------------------------|-----------4----|
|-------5-5-5-4-4-4-------6-6-6-5-|-5-5-------4----|
|-3-3-3-------------2-2-2---------|-----1-1-1-4----|


  TPTPTPTPTPTPTPTPTPTPTPTPTPTPTPTP  TPTP
  S S S S S S S S S S S S S S S S   S S S S S E
|---------------------------------|----------------|
|---------------------------------|----------------|
|---------------------------------|-----------8----|
|---------------------------------|-----------6----|
|-------5-5-5-4-4-4-------6-6-6-5-|-5-5-------6----|
|-3-3-3-------------2-2-2---------|-----1-1-1-6----|


  TPTPTPTPTPTPTPTPTPTPTPTPTPTPTPTP  TPTP
  S S S S S S S S S S S S S S S S   S S S S S E
|---------------------------------|----------------|
|---------------------------------|----------------|
|---------------------------------|-----------6----|
|---------------------------------|-----------4----|
|-------5-5-5-4-4-4-------6-6-6-5-|-5-5-------4----|
|-3-3-3-------------2-2-2---------|-----1-1-1-4----|


  TPTPTPTPTPTPTPTPTPTPTPTPTPTPTPTP  TPTP
  S S S S S S S S S S S S S S S S   S S S S S E
|---------------------------------|----------------|
|---------------------------------|----------------|
|---------------------------------|-----------8----|
|---------------------------------|-----------6----|
|-------5-5-5-4-4-4-------6-6-6-5-|-5-5-------6----|
|-3-3-3-------------2-2-2---------|-----1-1-1-6----|


  TPTPTPTPTPTPTPTPTPTPTPTPTPTPTPTP  TPTP
  S S S S S S S S S S S S S S S S   S S
|---------------------------------|--------|
|---------------------------------|--------|
|---------------------------------|--------|
|---------------------------------|--------|
|-------5-5-5-4-4-4---------------|--------|
|-3-3-3-------------6-6-6-2-2-2-5-|-5-5----|


  TPTPTPTPTPTPTPTPTPTPTPTPTPTPTPTP  TPTP
  S S S S S S S S S S S S S S S S   S S
|---------------------------------|--------|
|---------------------------------|--------|
|-------1-1-1-0-0-0---------------|--------|
|-------------------2-2-2-3-3-3---|--------|
|---------------------------------|--------|
|-2-2-2-------------------------1-|-1-1----|


  TPTPTPTPTPTPTPTPTPTPTPTPTPTPTPTP  TPTP
  S S S S S S S S S S S S S S S S   S S
|---------------------------------|--------|
|---------------------------------|--------|
|---------------------------------|--------|
|---------------------------------|--------|
|-------5-5-5-4-4-4---------------|--------|
|-3-3-3-------------6-6-6-2-2-2-5-|-5-5----|


  TPTPTPTPTPTPTPTPTPTPTPTPTPTPTPTP  TPTP
  S S S S S S S S S S S S S S S S   S S
|---------------------------------|--------|
|---------------------------------|--------|
|-------1-1-1-0-0-0---------------|--------|
|-------------------2-2-2-3-3-3---|--------|
|---------------------------------|--------|
|-2-2-2-------------------------1-|-1-1----|


  TPTPTPTPTPTPTPTPTPTPTPTPTPTPTPTP  TPTP
  S S S S S S S S S S S S S S S S   S S
|---------------------------------|--------|
|---------------------------------|--------|
|---------------------------------|--------|
|---------------------------------|--------|
|-------5-5-5-4-4-4---------------|--------|
|-3-3-3-------------6-6-6-2-2-2-5-|-5-5----|


  TPTPTPTPTPTPTPTPTPTPTPTPTPTPTPTP  TPTP
  S S S S S S S S S S S S S S S S   S S
|---------------------------------|--------|
|---------------------------------|--------|
|-------1-1-1-0-0-0---------------|--------|
|-------------------2-2-2-3-3-3---|--------|
|---------------------------------|--------|
|-2-2-2-------------------------1-|-1-1----|


  TPTPTPTPTPTPTPTPTPTPTPTPTPTPTPTP  TPTP
  S S S S S S S S S S S S S S S S   S S
|---------------------------------|--------|
|---------------------------------|--------|
|---------------------------------|--------|
|---------------------------------|--------|
|-------5-5-5-4-4-4---------------|--------|
|-3-3-3-------------6-6-6-2-2-2-5-|-5-5----|


  TPTPTPTPTPTPTPTPTPTPTPTPTPTPTPTP  TPTP
  S S S S S S S S S S S S S S S S   S S
|---------------------------------|--------|
|---------------------------------|--------|
|-------1-1-1-0-0-0---------------|--------|
|-------------------2-2-2-3-3-3---|--------|
|---------------------------------|--------|
|-2-2-2-------------------------1-|-1-1----|


  PM------------------------------------------------|
  E E E E E E E E   E E E E E E E E   E E E E E E E E
|-----------------|-----------------|--------------------|
|-----------------|-----------------|--------------------|
|-----------------|-----------------|--------------------|
|-----------------|-----------------|--------------------|
|-4-3-2-3-2-1-4-3-|-2-3-2-1-4-3-2-3-|-2-1-4-3-2-3-2-1----|
|-4-3-2-3-2-1-4-3-|-2-3-2-1-4-3-2-3-|-2-1-4-3-2-3-2-1----|


----------------------------------------------------TP
  E E E E E E E E   E E E E E E E E   E E E E E E E E
|-----------------|-----------------|--------------------|
|-----------------|-----------------|--------------------|
|-----------------|-----------------|--------------------|
|-----------------|-----------------|--------------------|
|-4-3-2-3-2-1-4-3-|-2-3-2-1-4-3-2-3-|-2-1-4-3-2-3-2-1----|
|-4-3-2-3-2-1-4-3-|-2-3-2-1-4-3-2-3-|-2-1-4-3-2-3-2-1----|


  Q=140   Q=120 Q=140   Q=120 Q=140   Q=120
          TPTPTP        TPTPTP        TPTPTPTPTPTPTPTPTPTPTPTPTP
  E E E E S S S E E E E S S S E E E E S S S S S S S S S S S S S
|------------------------------------------------------------------|
|------------------------------------------------------------------|
|------------------------------------------------------------------|
|------------------------------------------------------------------|
|-3-2-0-1-5-5-5-3-2-0-1-6-6-6-3-2-0-1-5-5-5------------------------|
|-3-2-0-1-------3-2-0-1-------3-2-0-1-------3-3-3-6-6-6-5-5-2-2----|


          TPTPTP          TPTPTP        TPTPTP  TPTPTPTPTPTPTPTPTPTP
  E E E E S S S E E E   E S S S E E E E S S S   S S S S S S S S S S
|---------------------|-----------------------|-----------------------|
|---------------------|-----------------------|-----------------------|
|---------------------|-----------------------|-----------------------|
|---------------------|-----------------------|-----------------------|
|-3-2-0-1-5-5-5-3-2-0-|-1-6-6-6-3-2-0-1-5-5-5-|-----------------------|
|-3-2-0-1-------3-2-0-|-1-------3-2-0-1-------|-3-3-3-6-6-6-5-5-2-2---|


          TPTPTP          TPTPTP        TPTPTP  TPTPTPTPTPTPTPTPTPTP
  E E E E S S S E E E   E S S S E E E E S S S   S S S S S S S S S S
|---------------------|-----------------------|-----------------------|
|---------------------|-----------------------|-----------------------|
|---------------------|-----------------------|-----------------------|
|---------------------|-----------------------|-----------------------|
|-3-2-0-1-5-5-5-3-2-0-|-1-6-6-6-3-2-0-1-5-5-5-|-----------------------|
|-3-2-0-1-------3-2-0-|-1-------3-2-0-1-------|-3-3-3-6-6-6-5-5-2-2---|


          TPTPTP          TPTPTP        TPTPTP  TPTPTPTPTPTPTPTPTPTP
  E E E E S S S E E E   E S S S E E E E S S S   S S S S S S S S S S
|---------------------|-----------------------|-----------------------|
|---------------------|-----------------------|-----------------------|
|---------------------|-----------------------|-----------------------|
|---------------------|-----------------------|-----------------------|
|-3-2-0-1-5-5-5-3-2-0-|-1-6-6-6-3-2-0-1-5-5-5-|-----------------------|
|-3-2-0-1-------3-2-0-|-1-------3-2-0-1-------|-3-3-3-6-6-6-5-5-2-2---|


  E
|------|
|------|
|-2----|
|-0----|
|-0----|
|-0----|



Duration Legend
---------------
W - whole; H - half; Q - quarter; E - 8th; S - 16th; T - 32nd; X - 64th; a - acciaccatura
+ - note tied to previous; . - note dotted; .. - note double dotted
Uncapitalized letters represent notes that are staccato (1/2 duration)
Irregular groupings are notated above the duration line
Duration letters will always appear directly above the note/fret number it represents the
duration for.  Duration letters with no fret number below them represent rests.  Multi-
bar rests are notated in the form Wxn, where n is the number of bars to rest for.  Low
melody durations appear below the staff

Tablature Legend
----------------
 h   - hammer-on
 p   - pull-off
 b   - bend
 pb  - pre-bend
 r   - bend release (if no number after the r, then release immediately)
 /\  - slide into or out of (from/to "nowhere")
 s   - legato slide
 S   - shift slide
 - natural harmonic
[n]  - artificial harmonic
n(n) - tapped harmonic
 ~   - vibrato
 tr  - trill
 T   - tap
 TP  - trem. picking
 PM  - palm muting
\n/  - tremolo bar dip; n = amount to dip
 \n  - tremolo bar down
 n/  - tremolo bar up
/n\  - tremolo bar inverted dip
 =   - hold bend; also acts as connecting device for hammers/pulls
 <> - volume swell (louder/softer)
 x   - on rhythm slash represents muted slash
 o   - on rhythm slash represents single note slash

Misc Legend
-----------
 |  - bar
||  - double bar
||o - repeat start
o|| - repeat end
*|  - double bar (ending)
 :  - bar (freetime)
 $  - Segno
 &  - Coda
Tempo markers -  = BPM(8/16=s8/s16), where s8 = swing 8ths, s16 = swing 16ths


** Generated using Power Tab Editor by Brad Larsen: The Official Power Tab Web Site
Tap to rate this tab
 
# A B C D E F G H I J K L M N O P Q R S T U V W X Y Z