Song name
# A B C D E F G H I J K L M N O P Q R S T U V W X Y Z

Mastifal - Nuevo Mundo Artificial tab

Artista: Mastifal
Titulo: Nuevo Mundo Artificial - New Artificial World
Album: Desde Las Tinieblas - From The Darkness

blackened78
blackened78@gmail.com

Afinacion: Standard (E A D G B e)

Algunas partes estan mejor que otras, cualquier comentario ahi tienen mi mail. Falta una 
al final (Antes de que se

repita el estribillo), y el solo.

-|----------------------------------------------------|
-|----------------------------------------------------|
-|----------------------------------------------------|
-|----------------------------------------------------|
-|-----7-----6-----12-----11-----10^-----7-----6------|
-|-0-0---0-0---0-0----0-0----0-0-----0-0---0-0---0-0--|
   Intro    ^ = armonico artificial

-|-12-9----------------|--7-4--------------|
-|------11-8-----------|------6-3----------|
-|-----------9---------|----------4--------|
-|-------------11-8----|------------6-3----|
-|------------------10-|----------------5--|
-|---------------------|-------------------|
   Guitarra 1            Guitarra 2

-|--------------------------------------------------------------------|
-|--------------------------------------------------------------------|
-|--------------------------------------------------------------------|
-|--------------------------------------------------------------------|
-|-----7-----6-----12-----11-----10^-----7-----6----------------------|
-|-0-0---0-0---0-0----0-0----0-0-----0-0---0-0---0-0-4-1-0-4-1-0-4-1--|


-|--------------------------------------------------------------|
-|--------------------------------------------------------------|
-|--------------------------------------------------------------|
-|--------------------------------------------------------------|
-|-12-121212-12-12--------------12-121212-12-12-7-8-10-12-10-8--|
-|-10-101010-10-10-5h6h8-10p8p6-10-101010-10-10-5-6-8--10-8--6--|
   Riff 1

-|-----------------|
-|-----------------|
-|-----------------|
-|-7h8h10-12p10p8--|
-|-----------------|
-|-----------------|
   La 2da y 4ta vez hace esto en lugar del 5h6h8 10p8p6

-|------------------------------|
-|------------------------------|
-|------------------------------|
-|------------------------------|
-|-12-121212-12-12--------------|
-|-10-101010-10-10-4p1p0-4p1p0--|
   Cambio de Riff

-|------------------------------------------------|
-|------------------------------------------------|
-|------------------------------------------------|
-|------------------------------------------------|
-|-2-222-2-2-------------2-222-2-2----------------|
-|-0-000-0-0-4p1p0-4p1p0-0-000-0-0-4-1-0-4-1-0----|
   Riff 2                          PM-------------|

-|-----------------------|
-|-----------------------|
-|-----------------------|
-|-12---11---12-11-8-7---|
-|-12---11---12-11-8-7---|
-|-10---9----10-9--6-5---|
   Estribillo

-|----------------------|
-|----------------------|
-|----------------------|
-|----------------------|
-|----------------------|
-|-10*--9*---10*9*6*5*--|
  * = Tremolo, lo hace la 2da y la 4ta vez
                                      x2                                    x2
-|-------------------------------------|--------------------------------------|
-|-------------------------------------|--------------------------------------|
-|----12-14-15-14-12----15-17-18-17-15-|----19-21-22-21-19----18-20-21-20-18--|
-|-12----------------15----------------|-19----------------18-----------------|
-|-------------------------------------|--------------------------------------|
-|-------------------------------------|--------------------------------------|
   x4                x4                  x4                x4
                          x2                        x2
-|-------------------------|--------------------------|
-|-------------------------|--------------------------|
-|-------------------------|--------------------------|
-|---5-7-8-7-5---3-5-6-5-3-|--------------------------|
-|-5-----------3-----------|---5-7-8-7-5---4-6-7-6-4--|
-|-------------------------|-5-----------4------------|
   x4                        x4

-|---------------------------------------------------------------|
-|---------------------------------------------------------------|
-|-----------------------------------------------------------10--|
-|-12---3----12----------------------------------------------10--|
-|-12---3----12----------13-------12-------10-------12-------8---|
-|-10---1----10-10-10-10----10-10----10-10----10-10----10-10-----|
   Base del solo

                                     x2
-|-------------------------------------|
-|-------------------------------------|
-|------3-----------------3---5-3------|
-|-5----3---4-5-7-5---5---3---5-3-4-5--|
-|-5----1---4-5-7-5---5---1---3-1-4-5--|
-|-3--------2-3-5-3---3-----------2-3--|
Tap to rate this tab
# A B C D E F G H I J K L M N O P Q R S T U V W X Y Z