Song name
# A B C D E F G H I J K L M N O P Q R S T U V W X Y Z

Mastodon - Island tab

-------------------------------------------------------------------------------
			    Island - Mastodon
-------------------------------------------------------------------------------
Tabbed by: Mike
Email: xmudvaynex_ld50@hotmail.comNOSPAM

Tuning: all 1 step down
Riff One
|---------------------------------------------------------------------------|
|-5-5-----5-5---------------------------------------------------------------|
|-4-4-----4-4-----3-3--x-x--6-6--x-x----------------------3-3-x-x--5-5-5----|x4
|-2-2-----2-2-----3-3--x-x--6-6--x-x--5-5--x-x--5-5--x-x--2-2-x-x--4-4-4----|
|-2-2-----2-2-----1-1--x-x--4-4--x-x--4-4--x-x--4-4--x-x--1-1-x-x--3-3-3----|
|-0-0-0-0-0-0-0-0-1-1--x-x--4-4--x-x--3-3--x-x--3-3--x-x--------------------|
     pm--    pm--                          N.H.      N.H.
Riff Two
|---------------------------------------------------------------------------|
|---------------------------------------------------------------------------|
|---------------------------------------------------------------------------|
|---------------------------------------------------------------------------|
|-2-----------5\3--2-3-2-----------7\6--0--4/6------------------------------|
|-0--0-0-0-0--3\1--0-1-0--0-0-0-0-------------------------------------------|
  pm--------           pm--------
|---------------------------------------------------------------------------|
|---------------------------------------------------------------------------|
|------------------------------------------6--------------------------------|
|------------------------------------6p5---5--------------------------------|x2
|-2-----------5\3--2--2-3-2--------------0-4--------------------------------|
|-0--0-0-0-0--3\1--0--0-1-0--0-0-0-0----------------------------------------|
  pm--------              pm--------
|---------------------------------------------------------------------------|
|---------------------------------------------------------------------------|
|---------------------------------------------------------------------------|
|----------------------------------9\8-6-8/9--------------------------------|
|-2-----------5\3--2-3-2-----------7\6-0-4/6--------------------------------|
|-0--0-0-0-0--3\1--0-1-0--0-0-0-0-------------------------------------------|
   pm-------           pm--------
|---------------------------------------------------------------------------|
|---------------------------------------------------------------------------|
|--------------------------------------6------------------------------------|
|--------------------------------6p5---5------------------------------------|
|-2----------5\3--2-3-2--------------0-4------------------------------------|
|-0--0-0-0-0-3\1--0-1-0--0-0-0-0--------------------------------------------|
   pm-------          pm--------
Riff Three
|---------------------------------------------------------------------------|
|---------------------------------------------------------------------------|
|--13\12---7/9--13\12---9/10-----13\12---10/12------------------------------|x2
|---------------------------------------------------------------------------|
|--11\10-0-5/7--11\10-0-7/8--0---11\10-0-8/10-------------------------------|
|---------------------------------------------------------------------------|

|---------------------------------------------------------------------------|
|---------------------------------------------------------------------------|
|---------------------------------------------------------------------------|
|--6p5---------6p5------------6p5---3/5---6p5----3/5------------------------|x2
|------0-5/7--------0-7/8---------0-----------0-----------------------------|
|---------------------------------------------------------------------------|
then repeat Riff Two, Then Riff Three, Then Riff One, Then Riff Two (once), then Riff Three

Instrumental 
|-------------------------------------------------------------------------------|
|-------------------------------------------------------------------------------|
|-----------------------------------------------------------11-11-11-12-11-14-11|
|-----------------4-4-4-5-4-7-4--11-11-11-11-12-11-14-11-12---------------------|
|-4-4-4-4-5-7-4-5---------------------------------------------------------------|
|-------------------------------------------------------------------------------|

|-------------------------14-14-14-15-14-17-14--9-9-9-9-10-9-9-----------------|
|-14-14-14-14-15-17-14-15--------------------------------------7-7-7-7-7-8-7-8-|
|------------------------------------------------------------------------------|
|------------------------------------------------------------------------------|
|------------------------------------------------------------------------------|
|------------------------------------------------------------------------------|

|-0--0--0--0--0--0--0---0--0--0--0--0--0---0--0--0--0---0--0--0--0--0--0----|
|-17-17-17-17-17-17-17--15-15-15-15-15-15--12-12-12-12--10-10-10-10-10-10---|
|---------------------------------------------------------------------------|
|---------------------------------------------------------------------------|
|---------------------------------------------------------------------------|
|---------------------------------------------------------------------------|

|-0-0-0-0-0-0--0-0-0-0--0-0-0-0-0-0--0-0-0-0-0-0--0-0-0-0--0-0-0-0-0-0-0-0-0--0--0--0--0--0--0--0--0--0-|
|-9-9-9-9-9-9--7-7-7-7--5-5-5-5-5-5--7-7-7-7-7-7--9-9-9-9--10-10-10-10-10-10--12-12-12-12-12-12-12-12-12|
|-------------------------------------------------------------------------------------------------------|
|-------------------------------------------------------------------------------------------------------|
|-------------------------------------------------------------------------------------------------------|
|-------------------------------------------------------------------------------------------------------|
Riff Four
|-----------------|----------------|-------------------|-------------------------|
|-----------------|----------------|-------------------|-------------------------|
|-----------------|----------------|-------------------|-------------------------|
|-8---6-(6)/9-9---|-8---6-(6)/9-9--|-8---9-(9)/12-12---|-8---9-(9)/12-12---------|
|-7---4-(4)/7-7---|-7---4-(4)/7-7--|-7---7-(7)/10-10---|-7---7-(7)/10-10---------|
|---0-----------0-|---0----------0-|---0-------------0-|---0-------------0-------|
   pm          pm     pm         pm    pm            pm    pm            pm
Riff Five
|-----------------|-----------------|-------------------|-------------------------|
|-----------------|-----------------|-------------------|-------------------------|
|-----------------|-----------------|-------------------|-------------------------|
|-8---------------|-8---------------|-8-----------------|-8-----------------------|
|-7---5-(5)/8-8---|-7---5-(5)/8-8---|-7---8-(8)/11-11---|-7---8-(8)/11------------|
|---0-3-(3)/6-6-0-|---0-3-(3)/6-6-0-|---0-6-(6)/9--9--0-|---0-6-(6)/9--0----------|
   pm          pm     pm          pm    pm            pm    pm         pm
Riff Six (x4)
|--------------------------|--------------------------|--------------------------|
|--------------------------|--------------------------|--------------------------|
|--------------------------|--------------------------|--------------------------|
|-----6--------------------|-----6--------------------|-----6--------------------|
|-----4-6------------------|-----4-6------------------|-----4-6------------------|
|-0h3---4--0h3-3-3-3-3-3-3-|-0h3---4--0h3-3-3-3-3-3-3-|-0h3---4-0h3-3-3-3-3-3-3--|
          pm------------             pm--------------          pm------------

|---------|----------|
|---------|----------|
|---------|----------|
|-----6---|-----7----|
|-----4-6-|-----5-7--|
|-0h3---4-|-0h3---5--|

After Riff six (x4), then Do Riff 4, Then Riff 5, Then Do Outro

Outro
|----------------------------|
|----------------------------|
|----------------------------|
|-----6----------------------|
|-----4-6----5---------------|
|-0h3---4--0-3---------------|

|N.H. natural harmonic
| /  slide up
| \  slide down
| h  hammer-on
| p  pull-off
| ~  vibrato
| +  harmonic
| x  Mute note
==============================================================================
Tap to rate this tab
# A B C D E F G H I J K L M N O P Q R S T U V W X Y Z