Song name
# A B C D E F G H I J K L M N O P Q R S T U V W X Y Z

Mastodon - Ghost Of Karelia tab

Mastodon
Ghost of Karelia
copyright (c) Warner Brothers Records 2009
Tabbed by: Travis

This is tuned to CGCFAD

I am missing some parts and some parts are incorrect if you know the correct
parts feel free to take this tab and correct it.	

 /  slide up
 \  slide down
 p  pull-off
 .  Palm Mute
=============================================================================


Intro(Not correct but it is something to work off of)
D|-10p0-10/13-13--8p0-8/10-10--5--6--8---3-3--5-5--0--1--3-----------|
A|-------------------------------------------------------------------|
F|-------------------------------------------------------------------|
C|-------------------------------------------------------------------|
G|-------------------------------------------------------------------|
D|-------------------------------------------------------------------|


D|--------------------------------------------------------------|    
A|--------------------------------------------------------------|
F|---------------7/10-10/7--------------7/10-10/7-7/10----------|
C|--10>0-0-7>0-0-7/10-10/7-10>0-0-7>0-0-7/10-10/7-7/10----------|
G|--------------------------------------------------------------|
C|--------------------------------------------------------------| 

D|---------------------------------------------------|         
A|---------------------------------------------------|
F|---------------7/10-10/7-7/5-5/4-------------------|
C|--10>0-0-7>0-0-7/10-10/7-7/5-5/4-------------------|
G|---------------------------------------------------|
C|---------------------------------------------------|

+++++++++++++++++++++++++++++++++++++++++++
Missing the (Wrathful one, nine eyes gaze) part anybody want to help me out with that? 
+++++++++++++++++++++++++++++++++++++++++++

(twilight, holding through)
D|---------------------------------------------------------------------|
A|---------------------------------------------------------------------|
F|--------------9-----------------10-------------------9---------------|
C|-------------9-9--------------10--10----------------9-9--------------|
G|------5/3-5/7----------5/3-5/8---------------5/3-5/7-----------------|
C|--0----------------0---------------------0---------------------------|


(Offerings)
D|------------------------------------------|
A|------------------------------------------|
F|------------------------------------------|
C|-----10--9--7--5--7-----------------------|
G|-----8---7--5--3--5/7\5-------------------|
C|------------------------------------------|

bend down on everything but the 0 notes for this one v
(Between Heaven and Earth)
D|------------------------------------|
A|------------------------------------|
F|------------------------------------|
C|7-------7---7--6-------6---6--------|
G|5-------5---5--4-------4---4--------|
C|-000000--00--00-000000--00--00------|
   ......  ..  .. ......  ..  ..

(Feel Crust Hum, Vapor Space)
D|-----------------------------------|
A|--------6---6---5---5--------------|
F|-------7---7---6---6---------------|
C|------7---7---6---6----------------|
G|-----5---5---4---4-----------------|
C|-----------------------------------|


(How long, has it been, since we flew through shadows)
D|---------------------------------------------------------|
A|---------------------------------------------------------|
F|---------------------------------------------------------|
C|--------13-10---- 12-9------10-9-10-7-9-7----------------|
G|--------11-8------10-7------ 8-7--8-5-7-5----------------|
C|---0-0--------0-0--------0-0-----------------------------|
       .          .          .        
Tap to rate this tab
# A B C D E F G H I J K L M N O P Q R S T U V W X Y Z