Song name
# A B C D E F G H I J K L M N O P Q R S T U V W X Y Z

Mastodon - Oblivion tab

Mastodon
Oblivion(Intro)
copyright (c) Warner Brothers 2009
Tabbed by: Travis	


 x  Mute note
=====================================================================

D|-----------------------------------------|
A|-----------------------------------------|
F|----8-----------8------------------------|
C|---------0-----------0-------------------|
G|------6-----------6----------------------|
C|-------------------------0---------------|

D|-----------------------------------------|
A|-----------------------------------------|
F|----8-----------8------------------------|
C|---------0-----------0-------------------|
G|------6-----------6----------------------|
C|-------------------------0---------------|
                           x

D|------------------------------|
A|------------------------------|
F|----8-------------------------|
C|---------0-----5---7----------|
G|------6--------3---5----------|
C|-------------0---0------------|

D|----------------------------------------|
A|----------------------------------------|
F|----8-----------------------------------|
C|---------0-----5---7---8---7---5---7----|
G|------6--------3---5---6---5---3---5----|
C|-------------0---0---0---0---0---0------|


Tap to rate this tab
 
# A B C D E F G H I J K L M N O P Q R S T U V W X Y Z