Song name
# A B C D E F G H I J K L M N O P Q R S T U V W X Y Z

Mastodon - Oblivion tab

---------------------------------------------------------------------------
OBLIVION (solo) - Mastodon
---------------------------------------------------------------------------
Tabbed by: Shinsen88
Email: shinsen88@yahoo.com

Tuning:CGCFAD

Noone has done a complete tab of the solo thus far, so hereís my take on it.
I doubt itís 100% correct (itís hard to hear the fast part in the recording),
but at the very least itís pretty close. Enjoy!

D|---------------------------------------------------|
A|-8b-8b~---8b-6---6/8-8v---6h8p6-5h6p5---5----------|
F|---------------7----------------------7---7-5-5/7v-|
C|---------------------------------------------------|
G|---------------------------------------------------|
C|---------------------------------------------------|

D|-----10--------|
A|-/10----10-12b-|
F|---------------|
C|---------------|
G|---------------|
C|---------------|

fast part
D|-15-18-15-------------------------------------------------------|
A|----------15-18-15-13-15-13-------------------------------------|
F|----------------------------12-15-12-10-12-10-------------------|
C|----------------------------------------------12-15-12-10-12-10-|
G|----------------------------------------------------------------|
C|----------------------------------------------------------------|

D|-----------------------------------------------|
A|-----------------------------------------------|
F|-----------------------------------------------|
C|-----------------------------------------------|
G|-10-13-10-8-10-8-5-8-5-3-5-3-------------------|
C|-----------------------------5-8-5-3-5-3-0-3-0-|


D|----------------------------|
A|-15b-15b---15br---12h15p12v-|
F|----------------------------|
C|----------------------------|
G|----------------------------|
C|----------------------------|

D|-------------------------------------------------------------------------|
A|-12-15-12----12----------------------------------------------------------|
F|----------14----14-12-14-12----12----------------------------------------|
C|----------------------------14----14-12-14-12----12----------------------|
G|----------------------------------------------14----14---12v---14v---13v-|
C|-------------------------------------------------------------------------|

D|---------------------------------------------------|
A|-11b---10b---12b-13b-11b---15b---14b---15b-17b-15b-|
F|-13b---12b---14b-15b-13b---17b---16b---17b-19b-17b-|
C|---------------------------------------------------|
G|---------------------------------------------------|
C|---------------------------------------------------|


| b  bend
| r  release
| .  palm mute
| ď  tremolo pick
| *  pinch harmonic
| ~  let note ring
| /  slide up
| \  slide down
| h  hammer-on
| p  pull-off
| v  vibrato
| +  natural harmonic
| x  mute note
=============================================================
Tap to rate this tab
# A B C D E F G H I J K L M N O P Q R S T U V W X Y Z