Song name
# A B C D E F G H I J K L M N O P Q R S T U V W X Y Z

Mastodon - Island tab

#----------------------------------PLEASE NOTE---------------------------------#
#This file is the author's own work and represents their interpretation of the #
#song. You may only use this file for private study, scholarship, or research. #
#------------------------------------------------------------------------------##

                                     ISLAND
                             As recorded by Mastodon
                         (From the 2004 Album LEVIATHAN)

Words and Music by Mastodon
Transcribed by GuitarHero_JP

Gtr I (D G C F A D) - 'Guitar I'
Gtr II (D G C F A D) - 'Guitar II'

 Intro
  Q=120
 3/4
  Gtr I
  E S S S S E S S S S   E S S S S E S S S S
|---------------------|---------------------|
|---------------------|---------------------|
|-4-4-4-4-4-4-4-4-4-4-|-3-3-3-3-3-6-6-6-6-6-|
|-2-2-2-2-2-2-2-2-2-2-|-3-3-3-3-3-6-6-6-6-6-|
|-2-2-2-2-2-2-2-2-2-2-|-1-1-1-1-1-4-4-4-4-4-|
|-0-0-0-0-0-0-0-0-0-0-|-1-1-1-1-1-4-4-4-4-4-|


                                              Gtrs I, II
  E S  S   S   S  E S  S   S   S    E S S S S E S S S S
|---------------------------------|---------------------|
|---------------------------------|---------------------|
|---------------------------------|-3-3-3-3-3-5-5-5-5-5-|
|-5-5-------------5-5-------------|-2-2-2-2-2-4-4-4-4-4-|
|-4-4-------------4-4-------------|-1-1-1-1-1-3-3-3-3-3-|
|-3-3-<3>-<3>-<3>-3-3-<3>-<3>-<3>-|---------------------|


   Verse
    Gtrs I, II
    E S S S S E S S S S   E S S S S E S S S S
||----------------------|---------------------|
||o---------------------|---------------------|
||--4-4-4-4-4-4-4-4-4-4-|-3-3-3-3-3-6-6-6-6-6-|
||--2-2-2-2-2-2-2-2-2-2-|-3-3-3-3-3-6-6-6-6-6-|
||o-2-2-2-2-2-2-2-2-2-2-|-1-1-1-1-1-4-4-4-4-4-|
||--0-0-0-0-0-0-0-0-0-0-|-1-1-1-1-1-4-4-4-4-4-|


  E S  S   S   S  E S  S   S   S    E S S S S E S S S S  3x
|---------------------------------|----------------------||
|---------------------------------|---------------------o||
|---------------------------------|-3-3-3-3-3-5-5-5-5-5--||
|-5-5-------------5-5-------------|-2-2-2-2-2-4-4-4-4-4--||
|-4-4-------------4-4-------------|-1-1-1-1-1-3-3-3-3-3-o||
|-3-3-<3>-<3>-<3>-3-3-<3>-<3>-<3>-|----------------------||


   Chorus
    E S S S S S S S S E   E S S S S S S S S E
||----------------------|---------------------|
||o---------------------|---------------------|
||----------------------|---------------------|
||----------------------|---------------------|
||o-2---------5-3---2-3-|-2---------7\6-0-4/6-|
||--0-0-0-0-0-3-1-0-0-1-|-0-0-0-0-0-----------|


  E S S S S S S S S E   E S S S S S S S E.   4x
|---------------------|----------------------||
|---------------------|---------------------o||
|---------------------|-----------------6----||
|---------------------|-----------6\5---5----||
|-2---------5-3---2-3-|-2-------------0-4---o||
|-0-0-0-0-0-3-1-0-0-1-|-0-0-0-0-0------------||


  S S S S E S S S S E   S S S S E S S S S E
|---------------------|---------------------|
|---------------------|---------------------|
|---------------------|---------------------|
|-6\5-------6\5-------|-6\5---3/5-6\5---3/5-|
|-----0-5/7-----0-7/8-|-----0---------0-----|
|---------------------|---------------------|


  S S S S E S S S S E   S S S S E S S S S E
|---------------------|----------------------|
|---------------------|----------------------|
|---------------------|----------------------|
|-6\5-------6\5-------|-6\5---3/5-6\5---3/5--|
|-----0-5/7-----0-7/8-|-----0---------0------|
|---------------------|----------------------|


  Gtr I
   S  S S S E  S  S S S  E    S  S S  S  E  S  S S  S  E
|--------------------------|-----------------------------|
|--------------------------|-----------------------------|
|--------------------------|-----------------------------|
|--6\=5--------6\=5--------|--6\=5----3/=5--6\=5----3/=5-|
|-------0-5/7-------0-7/=8-|-------0-------------0-------|
|--------------------------|-----------------------------|
|
| Gtr II
|  S  S S S E  S  S S S  S    S  S S  S  E  S  S S  S  E
|--------------------------|-----------------------------|
|--------------------------|-----------------------------|
|-13\12---7/9-13\12---9/10-|-13\12---10/12-13\12---10/12-|
|--------------------------|-----------------------------|
|-11\10-0-5/7-11\10-0-7/=8-|-11\10-0--8/10-11\10-0--8/10-|
|--------------------------|-----------------------------|


   S  S S S E  S  S S S  E    S  S S  S  E  S  S S  S  E
|--------------------------|-----------------------------|
|--------------------------|-----------------------------|
|--------------------------|-----------------------------|
|--6\=5--------6\=5--------|--6\=5----3/=5--6\=5----3/=5-|
|-------0-5/7-------0-7/=8-|-------0-------------0-------|
|--------------------------|-----------------------------|
|
| Gtr II
|  S  S S S E  S  S S S  S    S  S S  S  E  S  S S  S  E
|--------------------------|-----------------------------|
|--------------------------|-----------------------------|
|-13\12---7/9-13\12---9/10-|-13\12---10/12-13\12---10/12-|
|--------------------------|-----------------------------|
|-11\10-0-5/7-11\10-0-7/=8-|-11\10-0--8/10-11\10-0--8/10-|
|--------------------------|-----------------------------|

Chorus again
Verse

 Solo
 4/4
  S S S S S S S S S S S S S S S S
|---------------------------------|
|---------------------------------|
|---------------------------------|
|-----------------4-4-4-4-5-7-4-4-|
|-4-4-4-4-5-7-4-4-----------------|
|---------------------------------|
|
| Q       E   Q       E   E   E
|---------------------------------|
|---------------------------------|
|---------------------------------|
|-8-----------6-------9---9---6---|
|-7-----------4-------7---7---4---|
|---------0-----------------------|


   S  S  S  S  S  S  S  S  S  S  S  S  S  S  S  S
|--------------------------------------------------|
|--------------------------------------------------|
|----------------------------11-11-11-12-11-14-11--|
|-11-11-11-11-12-11-14-11-12-----------------------|
|--------------------------------------------------|
|--------------------------------------------------|
|
|  Q           E     Q           E     E     E
|--------------------------------------------------|
|--------------------------------------------------|
|--------------------------------------------------|
|--8-----------------6-----------9-----9-----6-----|
|--7-----------------4-----------7-----7-----4-----|
|--------------0-----------------------------------|


   S  S  S  S  S  S  S  S  S  S  S  S  S  S  S  S
|-------------------------14-14-14-14-15-17-14-14-|
|-14-14-14-14-15-17-14-14-------------------------|
|-------------------------------------------------|
|-------------------------------------------------|
|-------------------------------------------------|
|-------------------------------------------------|
|
|  Q           E     Q           E     E     E
|-------------------------------------------------|
|-------------------------------------------------|
|-------------------------------------------------|
|--8-----------------9----------12----12-----9----|
|--7-----------------7----------10----10-----7----|
|--------------0----------------------------------|


  S S S S  S S S S S S  S S  S S S S
|-9-9-9-9-10-9-9---------------------|
|----------------7-7-7--7-7--8-7-8-7-|
|------------------------------------|
|------------------------------------|
|------------------------------------|
|------------------------------------|
|
| Q        E   Q        E    E   E
|------------------------------------|
|------------------------------------|
|------------------------------------|
|-8------------9-------12---12---9---|
|-7------------7-------10---10---7---|
|----------0-------------------------|


   S  S  S  S  S  S  S  S  S  S  S  S  S  S  S  S
|--0--0--0--0--0--0--0--0--0--0--0--0--0--0--0--0-|
|-17-17-17-17-17-17-15-15-15-15-15-15-12-12-12-12-|
|-------------------------------------------------|
|-------------------------------------------------|
|-------------------------------------------------|
|-------------------------------------------------|
|
|  Q           E     Q           E     E     E
|-------------------------------------------------|
|-------------------------------------------------|
|-------------------------------------------------|
|--8----------------------------------------------|
|--7-----------------5-----------8-----8-----5----|
|--------------0-----3-----------6-----6-----3----|


   S  S  S  S  S  S S S S S S S S S S S
|--0--0--0--0--0--0-0-0-0-0-0-0-0-0-0-0-|
|-10-10-10-10-10-10-9-9-9-9-9-9-7-7-7-7-|
|---------------------------------------|
|---------------------------------------|
|---------------------------------------|
|---------------------------------------|
|
|  Q           E    Q       E   E   E
|---------------------------------------|
|---------------------------------------|
|---------------------------------------|
|--8------------------------------------|
|--7----------------5-------8---8---5---|
|--------------0----3-------6---6---3---|


  S S S S S S S S S S  S S  S S S S
|-0-0-0-0-0-0-0-0-0-0--0-0--0-0-0-0-|
|-5-5-5-5-5-5-7-7-7-7--7-7--9-9-9-9-|
|-----------------------------------|
|-----------------------------------|
|-----------------------------------|
|-----------------------------------|
|
| Q       E   Q        E    E   E
|-----------------------------------|
|-----------------------------------|
|-----------------------------------|
|-8---------------------------------|
|-7-----------8-------11---11---8---|
|---------0---6--------9----9---6---|


   S  S  S  S  S  S  S  S  S  S  S  S  S  S  S  S
|--0--0--0--0--0--0--0--0--0--0--0--0--0--0--0--0-|
|-10-10-10-10-10-10-12-12-12-12-12-12-12-12-12-12-|
|-------------------------------------------------|
|-------------------------------------------------|
|-------------------------------------------------|
|-------------------------------------------------|
|
|  Q           E     Q           E     E     E
|-------------------------------------------------|
|-------------------------------------------------|
|-------------------------------------------------|
|--8----------------------------------------------|
|--7-----------------8----------11----11-----8----|
|--------------0-----6-----------9-----9-----6----|


 Bridge
  Gtrs I, II
  Q  E Q  E E E   Q  E Q  E E E   Q  E Q   E  E E   Q  E Q   E  E E
|---------------|---------------|-----------------|-----------------|
|---------------|---------------|-----------------|-----------------|
|---------------|---------------|-----------------|-----------------|
|-8----6--9-9-6-|-8----6--9-9-6-|-8----9--12-12-9-|-8----9--12-12-9-|
|-7----4--7-7-4-|-7----4--7-7-4-|-7----7--10-10-7-|-7----7--10-10-7-|
|----0----------|----0----------|----0------------|----0------------|


  Q  E Q  E E E   Q  E Q  E E E   Q  E Q   E  E E   Q  E Q   E  E E
|---------------|---------------|-----------------|-----------------|
|---------------|---------------|-----------------|-----------------|
|---------------|---------------|-----------------|-----------------|
|-8-------------|-8-------------|-8---------------|-8---------------|
|-7----5--8-8-5-|-7----5--8-8-5-|-7----8--11-11-8-|-7----8--11-11-8-|
|----0-3--6-6-3-|----0-3--6-6-3-|----0-6---9--9-6-|----0-6---9--9-6-|


 Bridge Pt. 2
  Gtr I    Gtrs I, II
               PM--------|                PM--------|
  S E E. E S S S S S S S S   S E E. E S S S S S S S S
|--------------------------|--------------------------|
|--------------------------|--------------------------|
|--------------------------|--------------------------|
|-----6--------------------|-----6--------------------|
|-----4--6-----------------|-----4--6-----------------|
|-0h3----4-0h3-3-3-3-3-3-3-|-0h3----4-0h3-3-3-3-3-3-3-|


               PM--------|
  S E E. E S S S S S S S S   S E E. E S E E. E
|--------------------------|-------------------|
|--------------------------|-------------------|
|--------------------------|-------------------|
|-----6--------------------|-----6--------7----|
|-----4--6-----------------|-----4--6-----5--7-|
|-0h3----4-0h3-3-3-3-3-3-3-|-0h3----4-0h3----5-|


                 PM--------|                PM--------|
    S E E. E S S S S S S S S   S E E. E S S S S S S S S
||---------------------------|---------------------------|
||o--------------------------|---------------------------|
||---------------------------|---------------------------|
||------6--------------------|-----6---------------------|
||o-----4--6-----------------|-----4--6------------------|
||--0h3----4-0h3-3-3-3-3-3-3-|-0h3----4-0h3-3-3-3-3-3-3--|


               PM--------|
  S E E. E S S S S S S S S   S E E. E S E E. E  3x
|--------------------------|--------------------||
|--------------------------|-------------------o||
|--------------------------|--------------------||
|-----6--------------------|-----6--------7-----||
|-----4--6-----------------|-----4--6-----5--7-o||
|-0h3----4-0h3-3-3-3-3-3-3-|-0h3----4-0h3----5--||


 Outro
  Q  E Q  E E E   Q  E Q  E E E   Q  E Q   E  E E   Q  E Q   E  E E
|---------------|---------------|-----------------|-----------------|
|---------------|---------------|-----------------|-----------------|
|---------------|---------------|-----------------|-----------------|
|-8----6--9-9-6-|-8----6--9-9-6-|-8----9--12-12-9-|-8----9--12-12-9-|
|-7----4--7-7-4-|-7----4--7-7-4-|-7----7--10-10-7-|-7----7--10-10-7-|
|----0----------|----0----------|----0------------|----0------------|


  Q  E Q  E E E   Q  E Q  E E E   Q  E Q   E  E E   Q  E Q   E  E E
|---------------|---------------|-----------------|-----------------|
|---------------|---------------|-----------------|-----------------|
|---------------|---------------|-----------------|-----------------|
|-8-------------|-8-------------|-8---------------|-8---------------|
|-7----5--8-8-5-|-7----5--8-8-5-|-7----8--11-11-8-|-7----8--11-11-8-|
|----0-3--6-6-3-|----0-3--6-6-3-|----0-6---9--9-6-|----0-6---9--9-6-|


  S E E. E S E S Q
|--------------------*|
|--------------------*|
|--------------------*|
|-----6--------------*|
|-----4--6---5-------*|
|-0-3----4-0-3-------*|


Duration Legend
---------------
W - whole; H - half; Q - quarter; E - 8th; S - 16th; T - 32nd; X - 64th; a - acciaccatura
+ - note tied to previous; . - note dotted; .. - note double dotted
Uncapitalized letters represent notes that are staccato (1/2 duration)
Irregular groupings are notated above the duration line
Duration letters will always appear directly above the note/fret number it represents the
duration for.  Duration letters with no fret number below them represent rests.  Multi-
bar rests are notated in the form Wxn, where n is the number of bars to rest for.  Low
melody durations appear below the staff

Tablature Legend
----------------
 h   - hammer-on
 p   - pull-off
 b   - bend
 pb  - pre-bend
 r   - bend release (if no number after the r, then release immediately)
 /\  - slide into or out of (from/to "nowhere")
 s   - legato slide
 S   - shift slide
  - natural harmonic
[n]  - artificial harmonic
n(n) - tapped harmonic
 ~   - vibrato
 tr  - trill
 T   - tap
 TP  - trem. picking
 PM  - palm muting
\n/  - tremolo bar dip; n = amount to dip
 \n  - tremolo bar down
 n/  - tremolo bar up
/n\  - tremolo bar inverted dip
 =   - hold bend; also acts as connecting device for hammers/pulls
 <>  - volume swell (louder/softer)
 x   - on rhythm slash represents muted slash
 o   - on rhythm slash represents single note slash

Misc Legend
-----------
 |  - bar
||  - double bar
||o - repeat start
o|| - repeat end
*|  - double bar (ending)
 :  - bar (freetime)
 $  - Segno
 &  - Coda
Tempo markers -  = BPM(8/16=s8/s16), where s8 = swing 8ths, s16 = swing 16ths


***************************************************************************************
* Generated using Power Tab Editor by Brad Larsen - http://powertab.guitarnetwork.org *
***************************************************************************************
Tap to rate this tab
 
# A B C D E F G H I J K L M N O P Q R S T U V W X Y Z