Song name
# A B C D E F G H I J K L M N O P Q R S T U V W X Y Z

Mastodon - Hunters Of The Sky tab

#----------------------------------PLEASE NOTE---------------------------------#
#This file is the author's own work and represents their interpretation of the #
#song. You may only use this file for private study, scholarship, or research. #
#------------------------------------------------------------------------------##

                                HUNTERS OF THE SKY
                             As recorded by Mastodon
                      (From the 2006 Album BLOOD MOUNTAIN)

Words and Music by Mastodon
Transcribed by GuitarHero_JP

Gtr I (A G C F A D) - 'Guitar I'
Gtr II (A G C F A D) - 'Guitar II'

 Intro
  Q=95
 4/4
  Gtr I
  E Q  E +H       E Q  E +H       H    H
|---------------|---------------|-----------|
|---------------|---------------|-----------|
|------4-(4)----|------0-(0)----|-7----5----|
|---4-----------|---2-----------|-4----2----|
|-2-------------|-3-------------|-5----3----|
|---------------|---------------|-----------|
|
| Gtr II
| W               W               H    H
|---------------|---------------|-----------|
|---------------|---------------|-----------|
|-4-------------|-5-------------|-----------|
|-4-------------|-5-------------|-----------|
|-2-------------|-3-------------|-5----3----|
|-0-------------|---------------|-3----1----|


  E Q  E +H       E Q  E +H       H    H
|------2-(2)----|---------------|-----------|
|---------------|---------------|-----------|
|---------------|------0-(0)----|-7----5----|
|---4-----------|---2-----------|-4----2----|
|-2-------------|-3-------------|-5----3----|
|---------------|---------------|-----------|
|
| W               W               H    H
|---------------|---------------|-----------|
|---------------|---------------|-----------|
|-4-------------|-5-------------|-----------|
|-4-------------|-5-------------|-----------|
|-2-------------|-3-------------|-5----3----|
|-0-------------|---------------|-3----1----|


  E Q  E +H       E Q  E +H       H     H
|---------------|---------------|------------|
|---------------|---------------|-7----/8----|
|------4-(4)----|------0-(0)----|------------|
|---4-----------|---2-----------|-4----/5----|
|-2-------------|-3-------------|------------|
|---------------|---------------|------------|
|
| W               W               H     H
|---------------|---------------|------------|
|---------------|---------------|------------|
|-4-------------|-5-------------|------------|
|-4-------------|-5-------------|------------|
|-2-------------|-3-------------|-5-----3----|
|-0-------------|---------------|-3-----1----|


  E Q  E +H       E Q  E +H       Q.   Q    Q.
|---------------|---------------|----------------|
|---------------|---------------|-7----8---10----|
|------4-(4)----|------0-(0)----|----------------|
|---4-----------|---2-----------|-4----5----7----|
|-2-------------|-3-------------|----------------|
|---------------|---------------|----------------|
|
| W               W               H      H
|---------------|---------------|----------------|
|---------------|---------------|----------------|
|-4-------------|-5-------------|----------------|
|-4-------------|-5-------------|----------------|
|-2-------------|-3-------------|-5------3-------|
|-0-------------|---------------|-3------1-------|


  S S S S H.                        S S S S H.
|---------------------------------|---------------------------------|
|---------------------------------|---------------------------------|
|---------------------------------|---------------------------------|
|---------------------------------|---------------------------------|
|---------------------------------|---------------------------------|
|-0-0-0---------------------------|-0-0-0---------------------------|
|
| S S S S S S S S S S S S S S S S   S S S S S S S S S S S S S S S S
|---------------------------------|---------------------------------|
|---------------------------------|---------------------------------|
|-----------------------------4/5-|-----------------------------4/5-|
|-------4/7\4---------5\4---------|-------4/7\4---------5\4---------|
|-------2/5\2---------3\2-----2/3-|-------2/5\2---------3\2-----2/3-|
|-0-0-0-------0-0-0-0-----0-0-----|-0-0-0-------0-0-0-0-----0-0-----|


   Verse
    Gtrs I, II
    S S S S S S S S S S S S S S S S   S S S S S S S S S S S S S S S S
||----------------------------------|-----------------------------------||
||o---------------------------------|----------------------------------o||
||------------------------------4/5-|-----------------------------4/5---||
||--------4/7\4---------5\4---------|-------4/7\4---------5\4-----------||
||o-------2/5\2---------3\2-----2/3-|-------2/5\2---------3\2-----2/3--o||
||--0-0-0-------0-0-0-0-----0-0-----|-0-0-0-------0-0-0-0-----0-0-------||


   Chorus
                                              3/4
    Gtr I
     E. E. E. E. E E    E. E.  E.  E.  E E     E. E. E. E.
||-------------------|----------------------||-------------|
||o------------------|---------------------o||-------------|
||-------------------|----------------------||-------------|
||---------4---------|----------------------||-------------|
||o--9--3--2--7--3-3-|--9--3--12--11---9-7-o||-7--8--4--5--|
||---7--1-----5--1-1-|--7--1--10---9---7-5--||-5--6--2--3--|
|
|   Gtr II
|    E. E. E. E. E E    E. E.  E.  E.  E E     E. E. E. E.
||-------------------|----------------------||-------------|
||o------------------|---------------------o||-------------|
||-------------------|----------------------||-------------|
||--11--5--4--9--5-5-|-11--5--14--13--11-9--||-6--7--3--4--|
||o--9--3--2--7--3-3-|--9--3--12--11---9-7-o||-7--8--4--5--|
||-------------------|----------------------||-------------|

Verse
Chorus


   Bridge
   4/4
    Gtrs I, II
     E.  S  E E. E. E  E    E.  S  E E. E. E  E
||-----------------------|----------------------|
||o----------------------|----------------------|
||-----------------------|----------------------|
||--12--12-12-6--6--9-11-|-12--12-12-6--6--9-11-|
||o-10--10-10-4--4--7--9-|-10--10-10-4--4--7--9-|
||-----------------------|----------------------|


                         1.
   E.  S  E E. S +Q.      E.  S  E E. S +Q.
|----------------------|-----------------------||
|----------------------|----------------------o||
|----------------------|-----------------------||
|-12--12-12-6--6-(6)---|-12--12-12-6--6-(6)----||
|-10--10-10-4--4-(4)---|-10--10-10-4--4-(4)---o||
|----------------------|-----------------------||


  2.
               PM--|   PM   PM               PM--|   PM   PM
   E.  S  E E. S S S S S  S S    E.  S  E E. S S S S S  S S
|-----------------------------|-----------------------------|
|-----------------------------|-----------------------------|
|-----------------------------|-----------------------------|
|-12--12-12-6--------9---10---|-12--12-12-6--------9---10---|
|-10--10-10-4-----------------|-10--10-10-4-----------------|
|--------------1-0-1---0----0-|--------------1-0-1---0----0-|


   Interlude
    PM--|   PM      PM--|   PM              PM--|   PM      PM--|   PM
    S S S S S S S S S S S S S S S S         S S S S S S S S S S S S S S S S
||-----------------------------------||-||-----------------------------------||
||o---------------------------------o||-||o---------------------------------o||
||-----------------------------------||-||-----------------------------------||
||-----------------------------------||-||-----------------------------------||
||o-------2---3-2---------2---3-2---o||-||o-------5---6-5-0-------5---6-5-0-o||
||--0-1-0---0-----5-0-1-0---0-----5--||-||--3-4-3---3-------3-4-3---3--------||


  Gtr I
  PM--|   PM      PM--|   PM        PM--|   PM       PM--|   PM
  S S S S S S S S S S S S S S S S   S S S S S  S S S S S S S S  S S S
|---------------------------------|-----------------------------------|
|---------------------------------|-----------------------------------|
|---------------------------------|-----------------------------------|
|---------------------------------|-----------------------------------|
|-------7---8-7-0-------7---8-7-0-|-------9---10-9-0-------9---10-9-0-|
|-5-6-5---5-------5-6-5---5-------|-7-8-7---7--------7-8-7---7--------|
|
| Gtr II
| PM--|   PM      PM--|   PM        PM--|   PM       PM--|   PM
| S S S S S S S S S S S S S S S S   S S S S S  S S S S S S S S  S S S
|---------------------------------|-----------------------------------|
|---------------------------------|-----------------------------------|
|---------------------------------|-----------------------------------|
|---------------------------------|-----------------------------------|
|-------7---8-7-0-------7---8-7-0-|-------5----6-5-0-------5----6-5-0-|
|-5-6-5---5-------5-6-5---5-------|-3-4-3---3--------3-4-3---3--------|


    Gtrs I, II
    PM--|   PM      PM--|   PM
    S S S S S S S S S S S S S S S S
||-----------------------------------||
||o---------------------------------o||
||-----------------------------------||
||-----------------------------------||
||o-------2---3-2---------2---3-2---o||
||--0-1-0---0-----5-0-1-0---0-----5--||

Intro
Interlude
Bridge
Verse


   Outro
    Q=128
         PM------|                       PM------|
    H    S S E E E   Q.   Q.   Q    H    S S E E E   Q.   Q.   Q
||-----------------|--------------|----------------|----------------||
||o----------------|--------------|----------------|---------------o||
||-----------------|--------------|----------------|----------------||
||-----------------|-5---------6--|----------------|-5---------6----||
||o-2--------------|-3------------|-2--------------|-3-------------o||
||--0----0-0-0-0-0-|------4-------|-0----0-0-0-0-0-|------4---------||


  Gtr I
          PM------|                          PM------|
  Q   Q   S S E E E   Q.   Q.   Q    Q   Q   S S E E E   Q.   Q.   Q
|-------------------|--------------|-------------------|--------------|
|-------------------|--------------|-------------------|--------------|
|----<5>------------|--------------|----<5>------------|--------------|
|-------------------|-5---------6--|-------------------|-5---------6--|
|-2-----------------|-3------------|-2-----------------|-3------------|
|-0-------0-0-0-0-0-|------4-------|-0-------0-0-0-0-0-|------4-------|
|
| Gtr II
|         PM------|                          PM------|
| H       S S E E E   Q.   Q.   Q    H       S S E E E   Q.   Q.   Q
|-------------------|--------------|-------------------|--------------|
|-------------------|--------------|-------------------|--------------|
|-------------------|--------------|-------------------|--------------|
|-------------------|-5---------6--|-------------------|-5---------6--|
|-2-----------------|-3------------|-2-----------------|-3------------|
|-0-------0-0-0-0-0-|------4-------|-0-------0-0-0-0-0-|------4-------|


    Gtrs I, II
         PM------|                       PM------|
    H    S S E E E   Q.   Q.   Q    H    S S E E E   Q.   Q.   Q    6x
||-----------------|--------------|----------------|----------------||
||o----------------|--------------|----------------|---------------o||
||-----------------|--------------|----------------|----------------||
||-----------------|-5---------6--|----------------|-5---------6----||
||o-2--------------|-3------------|-2--------------|-3-------------o||
||--0----0-0-0-0-0-|------4-------|-0----0-0-0-0-0-|------4---------||


Duration Legend
---------------
W - whole; H - half; Q - quarter; E - 8th; S - 16th; T - 32nd; X - 64th; a - acciaccatura
+ - note tied to previous; . - note dotted; .. - note double dotted
Uncapitalized letters represent notes that are staccato (1/2 duration)
Irregular groupings are notated above the duration line
Duration letters will always appear directly above the note/fret number it represents the
duration for.  Duration letters with no fret number below them represent rests.  Multi-
bar rests are notated in the form Wxn, where n is the number of bars to rest for.  Low
melody durations appear below the staff

Tablature Legend
----------------
 h   - hammer-on
 p   - pull-off
 b   - bend
 pb  - pre-bend
 r   - bend release (if no number after the r, then release immediately)
 /\  - slide into or out of (from/to "nowhere")
 s   - legato slide
 S   - shift slide
  - natural harmonic
[n]  - artificial harmonic
n(n) - tapped harmonic
 ~   - vibrato
 tr  - trill
 T   - tap
 TP  - trem. picking
 PM  - palm muting
\n/  - tremolo bar dip; n = amount to dip
 \n  - tremolo bar down
 n/  - tremolo bar up
/n\  - tremolo bar inverted dip
 =   - hold bend; also acts as connecting device for hammers/pulls
 <>  - volume swell (louder/softer)
 x   - on rhythm slash represents muted slash
 o   - on rhythm slash represents single note slash

Misc Legend
-----------
 |  - bar
||  - double bar
||o - repeat start
o|| - repeat end
*|  - double bar (ending)
 :  - bar (freetime)
 $  - Segno
 &  - Coda
Tempo markers -  = BPM(8/16=s8/s16), where s8 = swing 8ths, s16 = swing 16ths


***************************************************************************************
* Generated using Power Tab Editor by Brad Larsen - http://powertab.guitarnetwork.org *
***************************************************************************************
Tap to rate this tab
# A B C D E F G H I J K L M N O P Q R S T U V W X Y Z