Song name
# A B C D E F G H I J K L M N O P Q R S T U V W X Y Z

Mastodon - This Mortal Soil tab

for the first part turn your pickup to 'solo mode' as i call it haha. theres more than 
time to turn it back when the intros over.

intro(x3)
D|----------------------------------------------------------------------------|
A|----------------------------------------------------------------------------|
F|-11s13r11~-11h-13^r-11h-13r-11s-9h-11~-13s15r13-13h-15^r-13h-15r-13s-11h-13-|
C|----------------------------------------------------------------------------|
G|----------------------------------------------------------------------------|
C|----------------------------------------------------------------------------|

bridge(x2)
|D|---------------------------------------------------------------|
|A|---------------------------------------------------------------|
|F|---------------------------------------------------------------|
|C|-4--6---------4--6-6------------4--6----------4--6-6-----------|
|G|-4---7-6-7-4--4------7-6-7-4-6--4----7-6-7-4--4------6-7-6-4-6-|
|C|-4------------4-----------------4-------------4----------------|
|
|D|-----------------------------|        |------------------------------|
|A|-----------------------------|on      |------------------------------|
|F|-----------------------------|second  |------------------------------|
|C|-7--9----------7--9-9-------6|time    |-7--6--4--2-2--6s4s2----------|
|G|-7----7-6-7-9--7------7-6-7--|through |-7--6--4--2-2--6s4s2----------|
|C|-7-------------7-------------|        |-7--6--4--2-2--6s4s2-2-6--2-4-|

D|---|--------------------|  |--------------------|
A|---|--------------------|  |--------------------|    (then first one
F|---|--------------------|  |--------------------|      again for 2)
C|-4-|---------------4-4--|x4|---------------2-2--|x2
G|-4-|-4h6r4r0-------4-4--|  |---------------2-2--|
C|-4-|--------6h9r6s-4-4~-|  |-6h9r6s4-4h6r4-2-2--|

(intro)
                                                   x x   x x   x x   x x
D|--------------------------------|  |------------------------------------|
A|--------------------------------|  |------------------------------------|
F|--------------------------------|  |-----------------11---13----14----16|
C|--------------------------------|x2|------9(x8)-------------------------|
G|----------4--7--9-11^r9h11r9s7h9|  |-7(x8)-----------9----11----12----14|
C|-4--7--9------------------------|  |------------------------------------|

D|----------------------------------------------------------------------|
A|----------------------------------------------------------------------|
F|----------------------------------------------------------------------|
C|-4~-4    -6-6-7-7-9-7-6-6-7-6~--2-4~--11    -9-9-7-7-6-7-6-6-7-6~-2-4~|x2
G|-4~-4(x4)-6-6-7-7-9-7-6-6-7-6~--2-4~--11(x4)-9-9-7-7-6-7-6-6-7-6~-2-4~|
C|-4~-4    -6-6-7-7-9-7-6-6-7-6~--2-4~--11    -9-9-7-7-6-7-6-6-7-6~-2-4~|

breakdown
|D|-----------------------------------------|
|A|-----------------------------------------|
|F|-----------------------------------------|
|C|-4-4-4-4-2-2-4-2-4-4-4-4-2-2-4-2-4-4-4-2-|
|G|-4-4-4-4-2-2-4-2-4-4-4-4-2-2-4-2-4-4-4-2-|
|C|-4-4-4-4-2-2-4-2-4-4-4-4-2-2-4-2-4-4-4-2-|
|
|D|-----------------------------------------|
|A|-----------------------------------------|
|F|-----------------------------------------|
|C|-7-7-7-7-6-6-7-6-7-7-7-7-6-6-7-6-7-7-7-6-|
|G|-7-7-7-7-6-6-7-6-7-7-7-7-6-6-7-6-7-7-7-6-|
|C|-7-7-7-7-6-6-7-6-7-7-7-7-6-6-7-6-7-7-7-6-|

slow breakdown
|D|---------------------------------------------|
|A|---------------------------------------------|
|F|---------------------------------------------|
|C|---------------------------------------------|
|G|---------------------------------------3---3-|
|C|-7~-7-9-10-12~-12-10-9-10r9s7~-7-9r7s5---5---|
|
|D|-----------------------------------------|
|A|-----------------------------------------|
|F|-----------------------------------------|
|C|-----------------------------------------|
|G|-----------------------------------o-----|o
|C|-4~-4-6-7~-s9-9-7-6-7r6s4~-4-6r4s2---2---|

breakdown

bridge
Tap to rate this tab
# A B C D E F G H I J K L M N O P Q R S T U V W X Y Z