Song name
# A B C D E F G H I J K L M N O P Q R S T U V W X Y Z

Mastodon - Hand Of Stone tab

Hand of stone - mastodon

D tuning

Verse

e-----------------------------|
b-----------------------------|
g-----------------------------|
d-----------------------------|
a-2-x-x-2-5-2-5---------------|  3x
e---------------3-x-x-3-6-3-6-|

e-----------------------------|
b-----------------------------|
g-----------------------------|
d-----------------------------|
a-----------------------------|
e-0-x-x-0-3-0-3-1-x-x-1-4-1-4-|


e-------------------------|
b-------------------------|
g-------------------------|
d-2-2---------1-1---------|   2x
a-----2-2-----------------|
e---------4-4-----4-4-0-0-|
      . . . .     . . . .


e-------------------------|
b-------------------------|
g-------------------------|
d-4-4---------3-3---------|   2x
a-----4-4---------1-1-0-0-|
e---------6-6-------------|
      . . . .     . . . .


e--------------------------|
b--------------------------|
g-------3-4-3-------5-6-5--|
d-2-----1-2-1-4-----3-4-3--|
a---2-----------4----------|
e-----4-----------6--------|


this is a harmony but one of the guitars wasnt fully tabbed
so i decided just to post one of the guitars

e---------------------------------------|
b---------------------------------------|
g-----------1-2---1-2-1---4-2-2-1-2-1---|
d-------2-4-----4-------4-------------4-|
a-2-4-5---------------------------------|
e---------------------------------------|


e---------------------------------------|
b---------------------------------------|
g-----------4-5---4-5-4---7-5-5-4-5-4---|
d-------5-7-----7-------7-------------7-|
a-5-7-8---------------------------------|
e---------------------------------------|


e----------------------------------------------|
b----------------------------------------------|
g----------------------------------------------|
d-------5-----------5-------7-----------7------|
a-5-6-3---6-3-5-6-3---7-8-5---8-5-7-8-5----8-5-|
e----------------------------------------------|

Breakdown

e-------------|
b-------------|
g-------------|
d-2-----1-----|  2x
a---2---------|
e-----4---4-0-|


e-------------|
b-------------|
g-------------|
d-4-----3-----|  2x
a---4-----1-0-|
e-----6-------|

Gtr 1

e---------------------------------------------------------------|
b---------------------------------------------------------------|
g---------------------------------------------------------------|
d-6------5------8------7-----10-------9-------12-------11-------|
a---7-------------8------7------10---------------12-------------|
e-----8-----8-7-----10-----8-------12----12-8-------13----14-10-|


Gtr 2

e-6------5------8-----7-----10-------|
b---6------6------8-----5------10----|
g-----6------6------9-----8-------10-|
d------------------------------------|
a------------------------------------|
e------------------------------------|

e-9------12-------11------14-------13-------|
b---6-------12-------9-------14-------11----|
g------9-------13------10-------15-------14-|
d-------------------------------------------|
a-------------------------------------------|
e-------------------------------------------|

(back to one guitar)

e-------------------------|
b-------------------------|
g-4-4-4-7-5-4-5-5-5-8-----|
d-2-2-2-5-3-2-3-3-3-6-5-7-|
a---------------------3-5-|
e-------------------------|

e-------------------------|
b-------------------------|
g-4-4-4-7-5-4-9-7-5-------|
d-2-2-2-5-3-2-7-5-3-4-5-7-|
a-------------------2-3-5-|
e-------------------------|

SOLO Yeehaw
(dont know if its good but im trusting its gonna be a good start
or its correct)

e----------------------------------------------------------------|
b----------------------------------------------------------------|
g----------------------------------------------------------------|
d----------10-------------10-------12-14-15-14-15-12-12-14-12-15-|
a-11-12-14----12p11h12-14----14-12-------------------------------|
e----------------------------------------------------------------|

e-------------------------------------------------------------|
b-------------------------------------------------12-12-------|
g-10-13-13-10-13----------13-14-14-------13-14-14-------14-16-|
d----------------12-14-15----------14-15----------------------|
a-------------------------------------------------------------|
e-------------------------------------------------------------|

e--------------------------------------------------------------|
b--------------------------------------------------------------|
g-14-13----13--------------------------------------------------|
d-------15----15-13B(15)----12---------------------------------|
a------------------------14----14-12-12-5-8-5---7-5-8-7-8-7-12-|
e---------------------------------------------7----------------|

e-------------------------------------------13----12-11B(13)-|
b-------------------------------12-------12----12------------|
g----------------13-14----14-13----13-14---------------------|
d-------12-15-12-------15------------------------------------|
a-14-12------------------------------------------------------|
e------------------------------------------------------------|

e----12-13-16-12----16-17---16-17-19-17-0-16-17--------------|
b-15-------------15-------0---------------------0-17-15-0-15-|
g------------------------------------------------------------|
d------------------------------------------------------------|
a------------------------------------------------------------|
e------------------------------------------------------------|

e-----------------------------|
b-----------------------------|
g----14-----------------------|
d-16----16-13----12-----------|
a-------------15--------12-14-|
e--------------------15-------|

Outro

e--------------------------------------------------|
b--------------------------------------------------|
g--------------------------------------------------|
d--------------------7-6----------------7-6---10-9-|
a-3-2----------------5-4---------3-2----5-4----8-7-|
e-1-0-00000000000000-----0000000-1-0-00-----00-----|

e---------------------------------------------|
b---------------------------------------------|
g---------------------------------------------|
d--------------------7-6-----------------7-6--|
a---------3-2--------5-4----------3-2----5-4--|
e-0000000-1-0-000000-----00000000-1-0-00------|

e---------------------------|
b---------------------------|
g---------------------------|
d-10-9~~~~~~~~~~~~~~~~~~~~~-|
a--8-7~~~~~~~~~~~~~~~~~~~~~-|
e---------------------------|


Sorry my tab isn't professional like all the other mastodon tabs
but at least its getting on the site
Tap to rate this tab
 
# A B C D E F G H I J K L M N O P Q R S T U V W X Y Z