Song name
# A B C D E F G H I J K L M N O P Q R S T U V W X Y Z

Mastodon - The Hunter tab

Guitar tuning is CGCFAD (drop C)

Please advise of corrections :)


--5----3-------0------------0-------0-------0-------------------------|
---------6-------6----------------8---8---8---8------6----------------|
-----------6-------6----------/10-------9----------7------------------|
0---0--------0-----------------------------------0--------------------|
----------------------------------------------------------------------|
----------------------------------------------------------------------|

--5---3-----------0--------0-------0-------0---------0----------------|
--------6-------6----------------8---8---8---8-----6------------------|
----------6---6--------------/10-------9---------7--------------------|
0---0-------0----------------------------------0----------------------|
----------------------------------------------------------------------|
----------------------------------------------------------------------|

--5---3-----------0--------0-------0-------0--------------------------|
--------6-------6----------------8---8---8---8-----6------------------|
----------6---6--------------/10-------9---------7--------------------|
0---0-------0----------------------------------0----------------------|
----------------------------------------------------------------------|
----------------------------------------------------------------------|


--5---3-------0-----------0-----------0-------0-------------0---------|
--------6-------6-------6---6-------8---8---8---8------6------6----6--|
----------6-------6---6---------/10-------9----------7----7------7----|
0---0-------0-------0------------------------------8------------------|
----------------------------------------------------------------------|
----------------------------------------------------------------------|

--------0---------------0---------------0-----------------------------|
----8-----8---8-----5-----5---5-----5-----5---5-----------------------|
--7---7-----7-----7---7-----7-----6---6-----6-------------------------|
5---------------7---------------7-------------------------------------|
----------------------------------------------------------------------|
----------------------------------------------------------------------|
Tap to rate this tab
# A B C D E F G H I J K L M N O P Q R S T U V W X Y Z