Song name
# A B C D E F G H I J K L M N O P Q R S T U V W X Y Z

Mastodon - Black Tongue tab

Mastodon: Black tongue solo 

Tuning: D Standard

Guitar 1

PM----------       PM------         PM-------
|---------------------------------------------------------------|
|---------------------------------------------------------------|
|--------4---4----------------5---5---------------9---9---12----|
|-5-555----5---------7-777------7------9--999-------9--------13-|
|---------------------------------------------------------------|
|---------------------------------------------------------------|

|----------------------------------------------------------------|
|----------------------------------------------------------------|
|-------12````-----------11````-----------9-7--------------------|
|-999999-----------777777---------9-10-9-------10-9-7------------|
|------------------------------------------------------10-5-7 S19|
|----------------------------------------------------------------|

|---------------------------------------12-----------------------|
|------8-10--------------10-12-------------15-13-15-13--13-------|
|-9-11-------11-12-11-12-------12--14-----------------16---b16-16|
|----------------------------------------------------------------|
|----------------------------------------------------------------|
|----------------------------------------------------------------|

|---------15-------------------19````20````19````17````19````17````15------|
|--b15(17)----b15(17)b15-12------------------------------------------b14-17|
|--------------------------------------------------------------------------|
|--------------------------------------------------------------------------|
|--------------------------------------------------------------------------|
|--------------------------------------------------------------------------|

|----------------------------------------------------------|
|----------------------------------------------------------|
|-----------7--10--9--------------------------7---9--------|
|--10---------------------9----------10--------------------|
|----------------------------------------------------------|
|----------------------------------------------------------|

    PM---    PM---      PM--     PM--
|----------7-----------------------------------------------X2
|--5------------------8--------8---------------------------|
|-------5--------5-------9-7------9-7----------------------|
|-----7--------7-------------------------------------------|
|----------------------------------------------------------|
|----------------------------------------------------------|


Guitar 2

|----------------------------------------------------------|
|----------------------------------------------------------|
|--------0---0---------2---2---------4---4-----5-----------|
|-2-222----2----4-444----4----5-555----5---------5---------|
|----------------------------------------------------------|
|----------------------------------------------------------|

|----------------------------------------------------------|
|--------555555------333333--------------------------------|
|----------------------------------------------------------|
|--555555------444444--------------------------------------|
|----------------------------------------------------------|
|----------------------------------------------------------|

Then there is this little break before the second 
solo guitar comes back again. It comes back at 2:30 in the song.

|----------------------------------------------------------|
|----------------------------------------------------------|
|----------------------------------------------------------|
|-------4-5-4------------------4-5-------------------------|
|--7-------------6-------7---------------------------------|
|----------------------------------------------------------|

   PM--    PM--     PM--    PM--
|--------3-------------------------------------------------X2
|-5---------------4--------4-------------------------------|
|---5-4-----5-4------5-4-----5-4---------------------------|
|----------------------------------------------------------|
|----------------------------------------------------------|
|----------------------------------------------------------|


Well this is pretty much it. Hope you manage to play the
full song, though this aint the hardest thing to play. 
It is very hard to figure out the background guitar playing
along with the solo guitars, do i could not manage to put that 
in there. 


Tap to rate this tab
# A B C D E F G H I J K L M N O P Q R S T U V W X Y Z