Song name
# A B C D E F G H I J K L M N O P Q R S T U V W X Y Z

Mastodon - Spectrelight tab

---------------------------------------------------------------------------
			   SPECTRELIGHT - Mastodon
---------------------------------------------------------------------------
Tabbed by: Greg Frisenda	
Email: greg.frisenda@yahoo.com

Tuning: Dropped A

Riff A - 2x - Verse
e|-----------------------------------------------------|
B|-----------------------------------------------------|
G|------------------------------------------14-14-14---|
D|------------------------------------------14-14-14---|
A|------------------------------------------12-12-12---|
E|-0--0-12-0-0-13-0-0-12-0-0-13-0-0-12-0-0-------------|

e|-----------------------------------------------------|
B|-----------------------------------------------------|
G|------------------------------------------14-14-14---|
D|------------------------------------------14-14-14---|
A|------------------------------------------12-12-12---|
E|-0--0-12-0-0-13-0-0-16-0-0-13-0-0-16-0-0-------------|

e|-----------------------------------------------------|
B|-----------------------------------------------------|
G|------------------------------------------14-14-14---|
D|------------------------------------------14-14-14---|
A|------------------------------------------12-12-12---|
E|-0--0-12-0-0-13-0-0-12-0-0-13-0-0-12-0-0-------------|

e|-------------------------------------------|
B|-------------------------------------------|
G|-12-------------------------------12--11---|
D|-12-----------------11------------12--11---|
A|-10-----------------9-------------10--9----|
E|--------------------7----------------------|

Riff B - 2x - Chorus
e|-------------------------------------------------|
B|-------------------------------------------------|
G|-------------14--14--14--------------14--14--14--|
D|-------------14--14--14--------------14--14--14--|
A|-------------12--12--12--------------12--12--12--|
E|-0-2-3-5-0-0-10--10--10--0-2-3-5-0-0-10--10--10--|

e|-------------------------------------------|
B|-------------------------------------------|
G|-------------12-12-12-------------12-12-12-|
D|-------------12-12-12-------------12-12-12-|
A|-------------10-10-10-------------10-10-10-|
E|-0-2-3-5-0-0-8--8--8--0-2-3-5-0-0-8--8--8--|

Repeat Riff A 2x
Repeat Riff B 2x

Riff C - 4x
e|-----------------------------------------|
B|-----------------------------------------|
G|-----------------------------------------|
D|-----------------------------------------|
A|-----------------------------------------|
E|-12-0-0-15-0-13-0-12-0-0-16-0-15-0-13-0--|

Riff D - 4x - Bridge
e|-2--2---------------------2--2---------------------3--3-----------------|
B|-3--3---------------------3--3---------------------4--4-----------------|
G|-4--4---------------------4--4---------------------5--5-----------------|
D|-4--4---------------------4--4---------------------5--5-----------------|
A|-2--2---------------------2--2---------------------3--3-----------------|
E|-------0-0-0-0-0-0-0-0-0--------0-0-0-0-0-0-0-0-0--------1-1-1-1-1-1-1-1|

e|-6--6---------6--6----------|
B|-7--7---------7--7----------|
G|-8--8---------8--8----------|
D|-8--8---------8--8----------|
A|-6--6---------6--6----------|
E|-------0-0-0--------0-0-0---|

Riff E left gtr - 2x
e|--------------------------------------------------------------|
B|--------------------------------------------------------------|
G|--------------------------------6--7--6-----------6-----------|
D|----7-----9-------7-----9----9-----------7-----7-----9--7--6--|
A|-9-----9-------9-----9----------------------------------------|
E|--------------------------------------------------------------|

Riff E right gtr - 2x
e|--------------------------------------------------------------|
B|--------------------------------------------------------------|
G|--------------------------------------------------------------|
D|----------4-------------4----4--5--7--5--4--------4-----------|
A|-2--5--2-------2--5--2-------------------------5-----7--5--4--|
E|--------------------------------------------------------------|

Riff F - 2x - Bridge
e|-------------------------------------------------------------------|
B|----------0-------------0------------------------------------------|
G|--------------------------------------------------------------10---|
D|----------------------------------------0-----------7------7-------|
A|-------2-------------2---------------------------5------8----------|
E|-0--1----------0--1------------3--4--3--------6--------------------|

e|-------------------------------------------------------------------|
B|----------0-------------0-------------------------------------1----|
G|-----------------------------------------------------------0-------|
D|----------------------------------------0-----------7--------------|
A|-------2-------------2---------------------------5-----------------|
E|-0--1----------0--1------------3--4--3--------6---------1----------|

Repeat Riff A - 2x
Repeat Riff B - 2x
Repeat Riff C - 4x

End
   \ 
e|-------------|
B|-------------|
G|-------------|
D|-------------|
A|-------------|
E|-12----------|



| /  slide up
| \  slide down
| h  hammer-on
| p  pull-off
| ~  vibrato
| +  harmonic
| x  Mute note
=============================================================================
Tap to rate this tab
# A B C D E F G H I J K L M N O P Q R S T U V W X Y Z