Song name
# A B C D E F G H I J K L M N O P Q R S T U V W X Y Z

Mastodon - Black Tongue tab

Drop D Tuning (DADGBE)

Verse
E--------------------------------------------------------------------|
B--------------------------------------------------------------------|
G--------------------------------------------------------------------|
D--------------------------------------------------------------------|
A---------10-10-10-10-9-9-9-9-8-8-8-8----10-10-10-10-9-9-9-9-8-8-8-8-|
D--5-5-5-5---------------------------5555----------------------------|

Post-Chorus
E---------------------------|
B---------------------------|
G---------------------------|
D---------------------------|
A---3-4---6-8-6-6-8-6-6-8-6-|
D--3-----------6-----5------|

Bridge
E---------------------------------------------------------|
B---------------------------------------------------------|
G---------------------------------------------------------|
D---------------2-5-3-------------5-2-3-------------2-5-3-|
A----------7-6-7-------------7-6-7-------------7-6-7------|
D--0--0-0-0----------0--0-0-0----------0--0-0-0-----------|

E------------------------------------------------|
B------------------------------------------------|
G------------------------------------------------|
D--------------5-2-3-------5-5-5-5---------------|
A---------7-6-7--------------------------3-3-3-3-|
D--0-0-0-0----------8-8-8-8-------3-3-3-3--------|

I will tab the solo and the main riff soon.
Tap to rate this tab
# A B C D E F G H I J K L M N O P Q R S T U V W X Y Z