Song name
# A B C D E F G H I J K L M N O P Q R S T U V W X Y Z

Mastodon - Dry Bone Valley tab

Track: Dry Bone Valley
Artist: Mastodon
Album: The Hunter (2011)


(Opening Trumpet Part)
d|--------------------------------------------------------------------------|
A|--------------------------------------------------------------------------|
F|--------------------------------------------------------------------------|
C|--------------------------------------------------------------------------|
G|--------------------------------------------------------------------------|
D|---12--14--17--19----12--14--17--19---------------------------------------|

(Opening Guitar Part, Both Guitars)
d|--------------------------------------------------------------------------|
A|--------------------------------------------------------------------------|
F|--------------------------------------------------------------------------|
C|--9--9-9--7--7-7--9--9-9--7--7-7--9--9-9--7--7-7--9--9-9--7--7-7----------|
G|--x--x-x--x--x-x--x--x-x--x--x-x--x--x-x--x--x-x--x--x-x--x--x-x----------|
D|--7--7-7--5--5-5--7--7-7--5--5-5--7--7-7--5--5-5--7--7-7--5--5-5----------|

(Verse, Both Guitars)
d|--------------------------------------------------------------------------|
A|--------------------------------------------------------------------------|
F|--9--------------------12\11/14\11/12\11--11------------------------------|
C|--x---------------------x\-x/-x\-x/-x\-x---x------------------------------|
G|--7--7777777777777777--10\-9/12\-9/10\-9---9--9999999999999999------------|
D|--0--0000000000000000-----------------------------------------------------|

d|--------------------------------------------------------------------------|
A|--------------------------------------------------------------------------|
F|--12\11/14\11/12\11---9---------------------------------------------------|
C|---x\-x/-x\-x/-x\-x---x---------------------------------------------------|
G|--10\-9/12\-9/10\-9---7---------------------------------------------------|
D|--------------------------------------------------------------------------|

(Pre-Chorus, Both Guitars)
d|--------------------------------------------------------------------------|
A|--------------------------------------------------------------------------|
F|--9//--15-15--14--12--9---------------------------------------------------|
C|--x//---x--x---x---x--x---------------------------------------------------|
G|--7//--13-13--12--10--7---------------------------------------------------|
D|--0-----------------------------------------------------------------------|

(Chorus)
  (Guitar 1)
d|--------------------------------------------------------------------------|
A|--------------------------------------------------------------------------|
F|--------------------------------------------------------------------------|
C|--9--9-9--7--7-7--9--9-9--7--7-7--9--9-9--7--7-7--9--9-9--7--7-7----------|
G|--x--x-x--x--x-x--x--x-x--x--x-x--x--x-x--x--x-x--x--x-x--x--x-x----------|
D|--7--7-7--5--5-5--7--7-7--5--5-5--7--7-7--5--5-5--7--7-7--5--5-5----------|
 |(Guitar 2)
d|--------------------------------------------------------------------------|
A|--------------------------------------------------------------------------|
F|--4--4-4--5--5-5--4--4-4--5--5-5--4--4-4--5--5-5--4--4-4--5--5-5----------|
C|--x--x-x--x--x-x--x--x-x--x--x-x--x--x-x--x--x-x--x--x-x--x--x-x----------|
G|--2--2-2--3--3-3--2--2-2--3--3-3--2--2-2--3--3-3--2--2-2--3--3-3----------|
D|--------------------------------------------------------------------------|

(Both Guitars)
d|--------------------------------------------------------------------------|
A|--------------------------------------------------------------------------|
F|--9--9--7--7--9--9--7--7--9--9--7--7--4--4--7--7--------------------------|
C|--x--x--x--x--x--x--x--x--x--x--x--x--x--x--x--x--------------------------|
G|--7--7--5--5--7--7--5--5--7--7--5--5--2--2--5--5--------------------------|
D|--------------------------------------------------------------------------|

d|--------------------------------------------------------------------------|
A|--------------------------------------------------------------------------|
F|--9--9--3--3--9--9--3b4r3--9--9--3--3--------7--7-------------------------|
C|--x--x--x--x--x--x--x------x--x--x--x--7--7--x--x-------------------------|
G|--7--7--1--1--7--7--1b2r1--7--7--1--1--x--x--5--5-------------------------|
D|---------------------------------------5--5-------------------------------|

Order:
Opening Trumpet Part
Opening Guitar Part
Verse x4 
Pre-Chorus x4
Chorus
Verse x4
Pre-Chorus x4
Chorus
(Second Part of Chorus x2 through solo)
Opening Guitar Part
Verse x4
Pre-Chorus x4

Key (in order of appearance):
x=Mute
\=slide down
/=slide up
b=bend
r=return
Tap to rate this tab
# A B C D E F G H I J K L M N O P Q R S T U V W X Y Z