Song name
# A B C D E F G H I J K L M N O P Q R S T U V W X Y Z

Mastodon - Curl Of The Burl tab

-----------------------------------------------------------------------------
                             Curl of the Burl - Mastodon
-----------------------------------------------------------------------------
Tabbed by: Mikethespud
Email: mike.mc.combees@hotmail.com

Tuning: AGCFAD

Intro/verse                                     (1/4)
D|------------------------------|------------------------------------------|
A|------------------------------|------------------------------------------|
F|------------------------------|------------------------------------------|
C|------------------------------|------------------------------------------|
G|------------------------------|----------------10b-----------------------|
A|--0---10---12----0---12--10---|-12---10---12---------10-----12-----------|

Pre-Verse                            (1/4)
|------------------------|--------------------|----------------------------|
|------------------------|--------------------|----------------------------|
|---9/11---9---7---9/11--|--9/11---9---7b-----|--9/11---9---7---9/11-------|
|------------------------|-----------------9--|----------------------------|
|------------------------|--------------------|----------------------------|
|------------------------|--------------------|----------------------------|

(Pre-Verse One Only)
|-----------------7h10----7--------------|
|----------7h10--------10---10p7--10/12--|
|----7h9--------9------------------------|
|--------9-------------------------------|
|----------------------------------------|
|----------------------------------------|

(Pre-Verse 2 only)
|-------------------------------|
|-------------------------------|
|---11--------------------7/11--|
|--------7h9-7---9---7h9--------|
|--------------9---9------------|
|-------------------------------|

Pre-Chorus
|--------------------|--------------------|
|--------------------|--------------------|
|--------------------|--------------------|
|--------------------|--------------------|
|-----------5--4-----|-----------5--2-----|
|---0--5/7-----------|---0--5/7-----------|

Chorus
|-------------------------|---------------------------|
|-------------------------|---------------------------|
|-------------------------|---------------------------|
|----------------------2--|---------------------------|
|------2p0-------2-3-5----|-5---3-----2------0--2/5---|
|---0-------0-------------|---------------------------|

Middle
|---------------------------|-------------0-----------|
|---------7------------7----|-------7--------7-----7--|
|------7-----7------7-----7-|----7-----7--------7-----|
|---------------------------|-------------------------|
|---------------------------|-------------------------|
|---5------------7----------|-8-----------------------|

|---------------------------|-------------0--------------------------|
|---------7------------7----|-------7--------7--15b17~~~~~~~~~~~~~~~~|
|------7-----7------7-----7-|----7-----7-----------------------------|
|---------------------------|----------------------------------------|
|---------------------------|----------------------------------------|
|---5------------7----------|-8--------------------------------------|

|----------------|
|~~~~~12h15p12---|
|----------------|
|----------------|
|----------------|
|----------------|

|---------------------------|-------------0-----------|
|---------7------------7----|-------7--------7-----7--|
|------7-----7------7-----7-|----7-----7--------7-----|
|---------------------------|-------------------------|
|---------------------------|-------------------------|
|---5------------7----------|-8-----------------------|

|---------------------------|--------------------19------------------------|
|---------7------------7----|-------7--------7---22b24~~~~~~~~~~~~~~br22---|
|------7-----7------7-----7-|----7-----7--9--------------------------------|
|---------------------------|----------------------------------------------|
|---------------------------|----------------------------------------------|
|---5------------7----------|-8--------------------------------------------|

|---------------------14------------------14-------------------------19----|
|--------------15h17------17-------15h17------17---15------15--------22b24-|
|--19--19----------------------------------------------16-----16-----------|
|--------------------------------------------------------------------------|
|--------------------------------------------------------------------------|
|--------------------------------------------------------------------------|

Outro Solo
|---------------------|---------------------------------|------------------|
|---------------------|---------------------------------|------------------|
|--------11--9~~~~~---|--------9--7~~~~~----------------|--------11--9~~~~~|
|---9/12--------------|---9/12-----------9p7---7--------|---9/12-----------|
|---------------------|----------------------9---9\7--5-|------------------|
|---------------------|---------------------------------|------------------|

|------------------------------|-----------------|-------------------------|
|------------------------------|-----------------|-----------7-----7-------|
|------9--7~~~~~---------------|--------11--9~~~~|-----9-7h9---7h9--7h9b11-|
|-9/12-----------9p7---7---7h9-|---9/12----------|-5/7---------------------|
|--------------------9---9-----|-----------------|-------------------------|
|------------------------------|-----------------|-------------------------|

|------------------------------|--------------------------------------------|
|------------------------------|--------------------------------------------|
|---9b11--9~~~~~~~~~~~~---7h9--|-----7--------------------------------------|
|------------------------------|--9-----9p7---------------------------------|
|------------------------------|-------------9p7----------------------------|
|------------------------------|------------------0-------------------------|

************************************

| /   slide up
| \   slide down
| h   hammer-on
| p   pull-off
| ~   vibrato
| +   harmonic
| x   Mute note
| b   Bend
| pb  Pre-bend
| br  Bend release
| pbr Pre-bend release
| brb Bend release bend

************************************
Tap to rate this tab
# A B C D E F G H I J K L M N O P Q R S T U V W X Y Z