Song name
# A B C D E F G H I J K L M N O P Q R S T U V W X Y Z

Mastodon - Ole Nessie tab

This is a masterpiece from 'Remission' all the other tabs weren't that great, so I 
decided to make my own.I'll also put the lyrics at the bottom if you want to sing along.

Artist: Mastodon
Song: Ole' Nessie
Album: Remission
Tuning: AGCFAD

This is the intro which you play a couple times

D|-10-12-0----14h0--10-12-0----14h0--10-12-0----14h0--10-12-0----14h0--|
A|---------12---------------12---------------12---------------12-------|
F|---------------------------------------------------------------------|
C|---------------------------------------------------------------------|
G|---------------------------------------------------------------------|
A|---------------------------------------------------------------------|


D|-3-5-0---7h0---3-5-0---7h0---3-5-0---7h0---3-5-0---7h0----------|
A|-------5------------5--------------5-------------5--------------|
F|----------------------------------------------------------------|
C|----------------------------------------------------------------|
G|----------------------------------------------------------------|
A|----------------------------------------------------------------|


D|-10-12-0----14h0--10-12-10----14h0--10-12-10----14h0--10-12-0----14h0--|
A|---------12----------------12----------------12---------------12-------|
F|-----------------------------------------------------------------------|
C|-----------------------------------------------------------------------|
G|-----------------------------------------------------------------------|
A|-----------------------------------------------------------------------|


D|-3-5-0---7h0--3-5-0---7h0--3-5-0---7h0--3-5-0---7h0--------------|
A|-------5------------5------------5------------5------------------|
F|-----------------------------------------------------------------|
C|-----------------------------------------------------------------|
G|-----------------------------------------------------------------|
A|-----------------------------------------------------------------|

D|-1-3-0---5h0--1-3-0---5h0--1-3-0---5h0--1-3-0---5h0--------------|
A|-------3------------3------------3------------3------------------|
F|-----------------------------------------------------------------|
C|-----------------------------------------------------------------|
G|-----------------------------------------------------------------|
A|-----------------------------------------------------------------|

D|----------------------------------------------------------------|
A|-5-8-7-5-7-5---5-8-7-5-5-7---5-8-7-5-7-5---5-8-7-5-5-7----------|
F|----------------------------------------------------------------|
C|----------------------------------------------------------------|
G|----------------------------------------------------------------|
A|----------------------------------------------------------------|

Then play this 2x

D|-------------------------------------------------------------------------|
A|-------------0------------------0-----------------0----------------0-----|
F|-------------------------------------------------------------------------|
C|-------10-------10--------10-------10--------9----------------7-------7--|
G|----12----12-----------12----12-----------10---10----9-----9-----9-------|
A|-10-----------------10------------------8----------------7---------------|

Also play this 2x

D|--------------------------------------------------------------------------|
A|-------------0------------------0------------------0-----------------0----|
F|--------------------------------------------------------------------------|
C|-------10------10--------10--------10--------14------14--------15------15-|
G|----12----12----------12-----12-----------15----15----------17----17------|
A|-10----------------10------------------13----------------15---------------|

Then this 1x

D|-------------------------0---0------------0b-------------0--------------|
A|----------10b----------------8b-----------x--------------1b-------------|
F|----------9b---------9--------------------4b--------2-------------------|
C|-----10-------------------------------5---------------------------------|
G|-8---------------10--------------3-------------0------------------------|
A|------------------------------------------------------------------------|

Then I believe you play this 3x

D|------------------------------------------------------------------------|
A|----------10-----------8-----------3-------6-------5--------------------|
F|------------------------------------------------------------------------|
C|------------------------------------------------------------------------|
G|------------------------------------------------------------------------|
A|-8----8-------7----7-------1----1-------4-------3-----------------------|

Then you play this 4x

D|-------------------------------------------------------------------|
A|-------------------------------------------------------------------|
F|-9--9--9--9--9--9--9--9--9--9--9--9---13--13--13--13--13--13--13---|
C|-------------------------------------------------------------------|
G|-7--7--7--7--7--7--7--7--7--7--7--7---11--11--11--11--11--11--11---|
A|-------------------------------------------------------------------|

D|-------------------------------------------------------------------|
A|-------------------------------------------------------------------|
F|-7--7--7--7--7--7---10-10-10-10-10-10-10-10-10-10-10-10------------|
C|-------------------------------------------------------------------|
G|-5--5--5--5--5--5---8--8--8--8--8--8--8--8--8--8--8--8-------------|
A|-------------------------------------------------------------------|

D|---------------------------------------------------------------------|
A|---------------------------------------------------------------------|
F|-4---4---------8---8---------4---4---------10--10--------------------|
C|-1---1---------5---5---------1---1---------7---7---------------------|
G|-2---2---------6---6---------2---2---------8---8---------------------|
A|---------0-0----------0-0------------0-0-----------0-0---------------|

Then this 4x

D|--------------------------------------------------------------------|
A|--------------------------------------------------------------------|
F|-4---4---------8---8---------4---4---------10--10-------------------|
C|-1---1---------5---5---------1---1---------7---7--------------------|
G|-2---2---------6---6---------2---2---------8---8--------------------|
A|---------0-0-----------0-0-----------0-0------------0-0-------------|

D|----11---11----11---11---11---11---4--4--4-----7------6---6---6----|
A|-------------------------------------------------------------------|
F|-11----11---11----11---11---11----4--4--4----7----7s6---6---6------|
C|-------------------------------------------------------------------|
G|-------------------------------------------------------------------|
A|-------------------------------------------------------------------|

This 2x

D|--------------------------------------------------------------------|
A|--------------------------------------------------------------------|
F|--------------------------------------------------------------------|
C|-1---1-------5---5---------1---1-------8---8------------------------|
G|-2---2-------6---6---------2---2-------7---7------------------------|
A|-------0-0-----------0-0----------0-0----------0-0------------------|

Then this 4x again

D|----11---11----11---11---11---11---4--4--4-----7------6---6---6----|
A|-------------------------------------------------------------------|
F|-11----11---11----11---11---11----4--4--4----7----7s6---6---6------|
C|-------------------------------------------------------------------|
G|-------------------------------------------------------------------|
A|-------------------------------------------------------------------|

Then this again 2x I believe

D|---------------------------------------------------------------------|
A|---------------------------------------------------------------------|
F|-4---4---------8---8---------4---4---------10--10--------------------|
C|-1---1---------5---5---------1---1---------7---7---------------------|
G|-2---2---------6---6---------2---2---------8---8---------------------|
A|---------0-0----------0-0------------0-0-----------0-0---------------|

Then this riff again

D|-------------------------------------------------------------------|
A|-------------------------------------------------------------------|
F|-9--9--9--9--9--9--9--9--9--9--9--9---13--13--13--13--13--13--13---|
C|-------------------------------------------------------------------|
G|-7--7--7--7--7--7--7--7--7--7--7--7---11--11--11--11--11--11--11---|
A|-------------------------------------------------------------------|

D|-------------------------------------------------------------------|
A|-------------------------------------------------------------------|
F|-7--7--7--7--7--7---10-10-10-10-10-10-10-10-10-10-10-10------------|
C|-------------------------------------------------------------------|
G|-5--5--5--5--5--5---8--8--8--8--8--8--8--8--8--8--8--8-------------|
A|-------------------------------------------------------------------|

Then this 2x again

D|---------------------------------------------------------------------|
A|---------------------------------------------------------------------|
F|-4---4---------8---8---------4---4---------10--10--------------------|
C|-1---1---------5---5---------1---1---------7---7---------------------|
G|-2---2---------6---6---------2---2---------8---8---------------------|
A|---------0-0----------0-0------------0-0-----------0-0---------------|

Then this 3x


D|--------------------------------------------------------------------------|
A|-------------10--------------------8--------------------3----------6----5-|
F|--------------------------------------------------------------------------|
C|--------9----------------------7--------------------2---------------------|
G|----10-------------10-------9-----------9--------3----------3-------------|
A|-8-----------------------7--------------------1------------------4----3---|

Then this part

D|-----0b--------0b--------3b-----5---------------------------|
A|-----x---------1b--------5b-----6---------------------------|
F|-----5b--------0b-------------------------------------------|
C|-----2b--------------5--------------------------------------|
G|-0---------3-----------------8------------------------------|
A|------------------------------------------------------------|

Then play this 2x again

D|-------------------------------------------------------------------------|
A|-------------0------------------0-----------------0----------------0-----|
F|-------------------------------------------------------------------------|
C|-------10-------10--------10-------10--------9----------------7-------7--|
G|----12----12-----------12----12-----------10---10----9-----9-----9-------|
A|-10-----------------10------------------8----------------7---------------|

Also play this 2x again

D|--------------------------------------------------------------------------|
A|-------------0------------------0------------------0-----------------0----|
F|--------------------------------------------------------------------------|
C|-------10------10--------10--------10--------14------14--------15------15-|
G|----12----12----------12-----12-----------15----15----------17----17------|
A|-10----------------10------------------13----------------15---------------|

Then end with this

D|-5b-------------------------------------------------------------|
A|-5b-------------------------------------------------------------|
F|-5b-------------------------------------------------------------|
C|-7b-------------------------------------------------------------|
G|-0--------------------------------------------------------------|
A|----------------------------------------------------------------|

And finally we're done with Ole' Nessie, and as promised here are the lyrics

Sanction lived in
Taught by masters
Flight of giving
Be mine always
Here for duration
Miss my sweet love
Times of sailing
Keep me grounded
Make us sure of future sanctions
Tap to rate this tab
# A B C D E F G H I J K L M N O P Q R S T U V W X Y Z