Song name
# A B C D E F G H I J K L M N O P Q R S T U V W X Y Z

Mastodon - Iron Tusk tab

Artist: Mastodon
Song: Iron Tusk
Album: Leviathan
Tabbed by: Sten Jansen (pino)

This song is played with a 7-stringed guitar, but you can play it also on a 6-stringed 
it sound almost the same, it's only an octave higher. So the tunging is normal.

Tuning:
E-A-D-G-B-E


E|---------------------------------------------------|
B|---------------------------------------------------|
G|---------------------------------------------------|\
D|---------------------------------------------------|4x
A|--0-0-0-0-12-12-12-12-0-0-0-0-12-12-10-13-10--8-7--|/
E|---------------------------------------------------|


E|--------------------------------------------------|
B|--------------------------------------------------|
G|------------------9\7/9---------------------------|
D|------------------7\5/7----------10-10-10-9-9-9---|
A|--0-0-0-0-0-0-0-0------0-0-0-0-0------------------|
E|--------------------------------------------------|
pm |---------------|    |---------------------------|


E|--------------------------------------------------------|
B|--------------------------------------------------------|
G|------------------9\7/(9)-------------10-10-10-9-9-9----|
D|------------------7\5/ 7-7-7-10-10-10-------------------|
A|--0-0-0-0-0-0-0-0---------------------------------------|
E|--------------------------------------------------------|
pm |------------------------------------------------------|

E|--------------------------------------------------|
B|--------------------------------------------------|
G|------------------9\7/9---------------------------|
D|------------------7\5/7----------10-10-10-9-9-9---|
A|--0-0-0-0-0-0-0-0------0-0-0-0-0------------------|
E|--------------------------------------------------|
pm |---------------|    |---------------------------|


E|--------------------------------------------------------|
B|--------------------------------------------------------|
G|------------------9\7/(9)-------------10-10-10-9-9-9----|
D|------------------7\5/ 7-7-7-10-10-10-------------------|
A|--0-0-0-0-0-0-0-0---------------------------------------|
E|--------------------------------------------------------|
pm |------------------------------------------------------|

E|--------------------------------------------------------------|
B|--------------------------------------------------------------|
G|-----------------12--10--12-10----------------10-10-10-9-9-9--|
D|--7-7-7-10-10-10---------------7-7-7-10-10-10-----------------|
A|--------------------------------------------------------------|
E|--------------------------------------------------------------|

E|-----------------------------|
B|-----------------------------|
G|-----------------------------|
D|--7-7-7-10-10-10-------------|
A|-----------------10--8--10-8-|
E|-----------------------------|

E|---------------------------------------------------|
B|---------------------------------------------------|
G|---------------------------------------------------|\
D|---------------------------------------------------|4x
A|--0-0-0-0-12-12-12-12-0-0-0-0-12-12-10-13-10--8-7--|/
E|---------------------------------------------------|

E|--------------------------------------------------|
B|--------------------------------------------------|
G|------------------9\7/9---------------------------|
D|------------------7\5/7----------10-10-10-9-9-9---|
A|--0-0-0-0-0-0-0-0------0-0-0-0-0------------------|
E|--------------------------------------------------|
pm |---------------|    |---------------------------|


E|--------------------------------------------------------|
B|--------------------------------------------------------|
G|------------------9\7/(9)-------------10-10-10-9-9-9----|
D|------------------7\5/ 7-7-7-10-10-10-------------------|
A|--0-0-0-0-0-0-0-0---------------------------------------|
E|--------------------------------------------------------|
pm |------------------------------------------------------|


E|--------------------------------------------------|
B|--------------------------------------------------|
G|------------------9\7/9---------------------------|
D|------------------7\5/7----------10-10-10-9-9-9---|
A|--0-0-0-0-0-0-0-0------0-0-0-0-0------------------|
E|--------------------------------------------------|
pm |---------------|    |---------------------------|


E|--------------------------------------------------------|
B|--------------------------------------------------------|
G|------------------9\7/(9)-------------10-10-10-9-9-9----|
D|------------------7\5/ 7-7-7-10-10-10-------------------|
A|--0-0-0-0-0-0-0-0---------------------------------------|
E|--------------------------------------------------------|
pm |------------------------------------------------------|


E|--------------------------------------------------------------|
B|--------------------------------------------------------------|
G|-----------------12--10--12-10----------------10-10-10-9-9-9--|
D|--7-7-7-10-10-10---------------7-7-7-10-10-10-----------------|
A|--------------------------------------------------------------|
E|--------------------------------------------------------------|

E|-----------------------------|
B|-----------------------------|
G|-----------------------------|
D|--7-7-7-10-10-10-------------|
A|-----------------10--8--10-8-|
E|-----------------------------|


E|---------------------------------------------------------|
B|---------------------------------------------------------|
G|---------------------------------------------------|\----|
D|--0-3-0-5-0-5-0-3-0-5-0-5-0-3-0-1-1-1-0-3-0-1-1-1--------| \
A|--0-1-0-3-0-3-0-1-0-3-0-3-0-1-0-------0-1-0--------------|  \
E|---------------------------------------------------------|   \
pm |-----------------------------|     |-------------------|            \
                                                          2x
                                                          /
E|-----------------------------------------------------|   /
B|-----------------------------------------------------|  /
G|-----------------------------------------------------| /
D|--0-3-0-5-0-5-0-3-0-5-0-5-0-3-0-3-3-3-0-3-0-3-3-3----|
A|--0-1-0-3-0-3-0-1-0-3-0-3-0-1-0-------0-1-0----------|
E|-----------------------------------------------------|
pm |-----------------------------|     |---------------|


E|---------------------------------|
B|---------------------------------|
G|---------------------------------|
D|--5------------------------------|
A|--5----9~---10--7--7--7h9-9p7-5~-|
E|--3------------------------------|


E|-----------------------------------------------------|
B|-----------------------------------------------------|
G|-----------------------------------------------------|
D|--5--------------------------------------------------|
A|--5----9~---10--7--7--7h9-9p7-5--6--3--3--3h5-5p3-1~-|
E|--3--------------------------------------------------|


E|---------------------------------|
B|---------------------------------|
G|-------7-------------------------|
D|--5----7-------------------------|
A|--5----5----6--3--3--3h5-5p3-1~--|
E|--3------------------------------|


E|----------------------------------------------------|
B|----------------------------------------------------|
G|-------7--------------------------------------------|
D|--5----7--------------------------------------------|
A|--5----5----6--3--3--3h5-5p3-1--3--0--0--0h3-3p0----|
E|--3----------------------------------------------4~-|


E|---------------------------------------------------------|
B|---------------------------------------------------------|
G|---------------------------------------------------|\----|
D|--0-3-0-5-0-5-0-3-0-5-0-5-0-3-0-1-1-1-0-3-0-1-1-1--------| \
A|--0-1-0-3-0-3-0-1-0-3-0-3-0-1-0-------0-1-0--------------|  \
E|---------------------------------------------------------|   \
pm |-----------------------------|     |-------------------|            \
                                                          2x
                                                          /
E|-----------------------------------------------------|   /
B|-----------------------------------------------------|  /
G|-----------------------------------------------------| /
D|--0-3-0-5-0-5-0-3-0-5-0-5-0-3-0-3-3-3-0-3-0-3-3-3----|
A|--0-1-0-3-0-3-0-1-0-3-0-3-0-1-0-------0-1-0----------|
E|-----------------------------------------------------|
pm |-----------------------------|     |---------------|


E|---------------------------------------------------------------------|
B|--16-16-16-------16-16-16-------------16-16-16-------16-16-16--------|
G|--14-14-14-------14-14-14-------------14-14-14-------14-14-14--|\----|
D|--13-13-13-------13-13-13-------------13-13-13-------13-13-13--------| \
A|-----------0-0-0----------0-0-0-0-0-0----------0-0-0-----------------|  \
E|---------------------------------------------------------------------|   \
pm          |-----|        |-----------|        |----------------------|               \
                                                                      4x
                                                                      /
E|-----------------------------------------------------------------|   /
B|--16-16-16-------16-16-16-------------18-18-18-------18-18-18----|  /
G|--14-14-14-------14-14-14-------------16-16-16-------16-16-16----| /
D|--13-13-13-------13-13-13-------------15-15-15-------15-15-15----|
A|-----------0-0-0----------0-0-0-0-0-0----------0-0-0-------------|
E|-----------------------------------------------------------------|
pm          |-----|        |-----------|        |------------------|


E|---------------------------------------------------|
B|---------------------------------------------------|
G|---------------------------------------------------|\
D|---------------------------------------------------|4x
A|--0-0-0-0-12-12-12-12-0-0-0-0-12-12-10-13-10--8-7--|/
E|---------------------------------------------------|


E|---------------------------|
B|---------------------------|
G|------------------9\7/9----|
D|------------------7\5/7----|
A|--0-0-0-0-0-0-0-0----------|
E|---------------------------|
pm |-------------------------|
Tap to rate this tab
# A B C D E F G H I J K L M N O P Q R S T U V W X Y Z