Song name
# A B C D E F G H I J K L M N O P Q R S T U V W X Y Z

Mastodon - Thank You For This tab

Mastodon: Thank You For This
Album: Call of the Mastodon, 7" Picture Disc
tuning: Half step down

------------------------------------------------------------------|
------------------------------------------------------------------|
------------------------------------------------------------------|
------5----5--------5-----5-----5---------------------------------|
----3----3--------------3-----3-----------------------------------|
--4----4-----3-4-3----4-----4-----4-3-4---------------------------|

------------------------------------------------------------------|
------------------------------------------------------------------|
------------------------------------------------------------------|guitar 1
------------------------------------------------------------------|repeat
6-6-6-6-6-66--6-6-6-6-666--6-6-6-6-6-66--6-6-6-6-666--------------|
4-4-4-4-4-44--4-4-4-4-444--4-4-4-4-4-44--4-4-4-4-444--------------|


then

guitar 2

-----------------------------11-11-11--11-------------------------|
-----------------------------14*-------14*------------------------|
-------------8-8-8------------------------------------------------|
-------------11*-11*----------------------------------------------|
------------------------------------------------------------------|
------------------------------------------------------------------|


------------------------------------------------------------------|
------------------------------------------------------------------|
------------------------------------------------------------------|
------5----5--------5-----5-----5---------------------------------|
----3----3--------------3-----3-----------------------------------|
--4----4-----3-4-3----4-----4-----4-3-4---------------------------|


   PM                   PM                 PM               PM
-----------------------------------------------------------------------------|
-----------------------------------------------------------------------------|
-----------------------------------------------------------------------------|
3--3-3--3--3--3--3---3--3-3--3--3--3----4--4-4--4--4--4--4--4-4-4-4--4--4--4-|
3--3-3--3--3--3--3---3--3-3--3--3--3----4--4-4--4--4--4--4--4-4-4-4--4--4--4-|
1--1-1--1--1--1--1---1--1-1--1--1--1----2--2-2--2--2--2--2--2-2-2-2--2--2--2-|

PM  PM  PM  PM  PM  PM  PM  PM  PM     PM
-----------------------------------------------------------------|
-----------------------------------------------------------------| Repeat x1
--6---8---9---6---8---9---6---8---9--11--9-8-9-------------------|
--6---8---9---6---8---9---6---8---9--11--9-8-9-------------------|
--4---6---7---4---6---7---4---6---7--9---7-6-7-------------------|
0---0---0---0---0---0---0---0---0------0-------------------------|


-----------------------------------------------------------------|
-----------------------------------------------------------------|
-----------------------------------------------------------------|Repeat x1
6---------------6-------------6-6---------6-6-6-6-6-6------------|
6---------------6-------------6-6---------6-6-6-6-6-6------------|
4444444444444444444444444444444-44444444444-4-4-4-4-4------------|

------------------------------------------------------------------|
------------------------------------------------------------------|
------------------------------------------------------------------|
------------------------------------------------------------------|
------------------------------------------------------------------|
000-333-555-888--000-333-555-888-000-333-555-888--000-333-555-888-|


------------------------------------------------------------------|
------------------------------------------------------------------|
------------555--------------555-------------555--------------555-|
000-333-777------000-333-777-----000-333-777------000-333-777-----|
------------------------------------------------------------------|
------------------------------------------------------------------|


-----------------------------------------------------------------|
-----------------------------------------------------------------|
---------------------------------------------555-------------555-|
---------------------------------000-333-777-----000-333-777-----|
-----------------------------------------------------------------|
000-333-555-888--000-333-555-888---------------------------------|


-----------------------------------------------------------------|
-----------------------------------------------------------------|
--------0-3---------0-3------0-3---------0-3-----6---8--9--------|
-----------------------------------------------------------------|
-------------------------------------------------4---6--7--------|
0-3----------0-3--------0-3---------0-3-------0---0---0----------|
"give in   next time    this will  be a blast..."


-----------------------------------------------------------------|
-----------------------------------------------------------------| Repeat x4
--6---8---9---6---8---9---6---8---9--11--9-8-9-------------------|
--6---8---9---6---8---9---6---8---9--11--9-8-9-------------------|
--4---6---7---4---6---7---4---6---7--9---7-6-7-------------------|
0---0---0---0---0---0---0---0---0------0-------------------------|


------------------------------------------------------------------|
------------------------------------------------------------------|
11--9-8---6--11--9-8---6--11--9-8---6---6-------------------------|
11--9-8---6--11--9-8---6--11--9-8---6---6-------------------------|
9---7-6---4--9---7-6---4--9---7-6---4---4--let ring---------------|
--0-----0------0-----0------0-------------------------------------|

Thats it. Hopefully you can work out the timing. Theres a couple of bits i'm not 
sure about and i dont know how to lay it out properly but theres no other tab for this killer song.


corrections? additions?: kev417@hotmail.com
Tap to rate this tab
# A B C D E F G H I J K L M N O P Q R S T U V W X Y Z