Song name
# A B C D E F G H I J K L M N O P Q R S T U V W X Y Z

Mastodon - We Built This Come Death tab

Mastodon: We Built This Come Death
Album: Call of the Mastodon, Lifesblood


Intro
-----------------/slide--15-slide----------------------|
---------------3*--------------------------------------|pinched harmonic
-------------3*----------------------------------------|
5*-slide-0-3*------------------------------------------|
------------------------------------0-5-0-4-0-5-0-4----|
-------------------------------------------------------|


-----------------/slide--15-slide------------------------------|
---------------3*----------------------------------------------|
-------------3*------------------------------------------------|
5*-slide-0-3*-------------------------7---6---7---6---2--------|
-------------------------------------7---7---7---7----2-2222---|
------------------------------------------------------0-0000---|
                                                        pm pm

Verse
-----------------------------------------------------|
-----------------------------------------------------|
-----------------------------------------------------|
--6-7--4-6------------------6-7--4-6-----------------|
------------7-9--6-7--4-6-------------7-9--6-7--4-6--|
4-------------------------4--------------------------|


------------------------------------------------------|
------------------------------------------------------|
--9-10--7-9--5-7-------------9-10--7-9--5-7-----------|
------------------9-10--7-9-----------------9-10--7-9-|
------------------------------------------------------|
0---------------------------0-------------------------|
"now you see... all this time work nine to five"


Chorus
----------------------------------------11-------------------|
-------------------------------------------14*---------------| *Bend
-------------------------------------------------------------|
6-66666-6-6666-2-22222-2-2222--6-66666-6------2-22222-2-2222-|
6-66666-6-6666-2-22222-2-2222--6-66666-6------2-22222-2-2222-|
4-44444-4-4444-0-00000-0-0000--4-44444-4------0-00000-0-0000-|
"for yoooooooooooouuuu!"

-------------------------------------------------------------|
---------5--------4------------------------------------------|
8--7--5----5----4---4--3--2----------------------------------|
8--7--5------5--4------3--2--5--4--3--2----------------------|
6--5--3---------2------1--0--5--4--3--2----------------------|
-----------------------------3--2--1--0----------------------|

then

intro
verse
chorus
intro

corrections? additions?: kev417@hotmail.com
Tap to rate this tab
# A B C D E F G H I J K L M N O P Q R S T U V W X Y Z