Song name
# A B C D E F G H I J K L M N O P Q R S T U V W X Y Z

Mastodon - Hearts Alive tab

Mastodon-Hearts Alive

Gtr I (D G C F A D) - 'Guitar 1 Clean'
Gtr II (D G C F A D) - 'Guitar 2 Clean'
Gtr III (D G C F A D) - 'Guitar 1 Distortion'
Gtr IV (D G C F A D) - 'Guitar 2 Distortion'
Gtr V (D G C F A D) - 'Gtr. 2 Clean (octave higher for 12 string)'

 h   - hammer-on
 p   - pull-off
 b   - bend
 pb  - pre-bend
 r   - bend release (if no number after the r, then release immediately)
 /\  - slide into or out of (from/to "nowhere")
 s   - legato slide
 S   - shift slide
 - natural harmonic
[n]  - artificial harmonic
n(n) - tapped harmonic
 ~   - vibrato
 tr  - trill
 T   - tap
 TP  - trem. picking
 PM  - palm muting
\n/  - tremolo bar dip; n = amount to dip
 \n  - tremolo bar down
 n/  - tremolo bar up
/n\  - tremolo bar inverted dip
 =   - hold bend; also acts as connecting device for hammers/pulls
 <> - volume swell (louder/softer)
 x   - on rhythm slash represents muted slash
 o   - on rhythm slash represents single note slash

   Intro
   4/4
||------------------|-----------------|---------3-------|---------3--------|
||o-----------------|-----------------|-----------4-----|-----------4------|
||----------0-------|---------0-------|-----0-------0---|-----0-------0----|
||------0-----0---0-|-----0-----0---0-|-0h1---1-------1-|-0h1---1-------1--|
||o-------4-----4---|-------4-----4---|-----------------|------------------|
||--2h3-------------|-2h3-------------|-----------------|------------------|

|-----------------|-----------------|---------3-------|---------3-------|
|-----------------|-----------------|-----------4-----|-----------4-----|
|---------0-------|---------0-------|-----0-------0---|-----0-------0---|
|-----0-----0---0-|-----0-----0---0-|-0h1---1-------1-|-0h1---1-------1-|
|-------4-----4---|-------4-----4---|-----------------|-----------------|
|-2h3-------------|-2h3-------------|-----------------|-----------------|

|---------8-------|---------7-------|---------8-------|---------7-------|
|-------0---0-----|-------0---0-----|-------0---0-----|-------0---0-----|
|-----5-------5---|-----5-------5---|-----5-------5---|-----5-------5---|
|---7-----------7-|---7-----------7-|---7-----------7-|---7-----------7-|
|-0---------------|-6---------------|-0---------------|-6---------------|
|-----------------|-----------------|-----------------|-----------------|

|-----------0-----|-----------------|---------2-------|---------2-------|
|-------2-4---4-2-|---------3-------|-----------2-----|-----------2-----|
|-----4-----------|-----3-----3---3-|-------------3---|-------------3---|
|---5-------------|-------3-----3---|-----4---------4-|-----4---------4-|
|-0---------------|-0h1-------------|-------4---------|-------4---------|
|-----------------|-----------------|-0h2-------------|-0h2-------------|

|-----------------|-----------------|------------------|-----------------|
|-----------------|-----------------|----------4-------|---------0-------|
|---------1-------|---------0-------|------0-----0---0-|-----3-----3---3-|
|-----2-----2---2-|-----2-----2---2-|----5---5-----5---|---2---2-----2---|
|---2---2-----2---|---3---3-----3---|------------------|-----------------|
|-0---------------|-1---------------|-/6---------------|-3---------------|

                                                        3x
|------0-----0-----|-----------------|------------------||
|----5-----5-----0-|-----------0-----|-----------0-----o||
|-/7-----7-----7---|-----4---4-----4-|-----4---4-----4--||
|------------------|---2-------------|---2--------------||
|------------------|-3-----3-----3---|-3-----3-----3---o||
|------------------|-----------------|------------------||

   Bridge I
   6/4
||------------------------------------|------------------------------------|
||o-----------------------------------|------------------------------------|
||------------------------------------|------------------------------------|
||------------------------------------|------------------------------------|
||o-4-(4)-4-4-(4)-4-4-(4)-4-(4)-4-(4)-|-4-(4)-4-4-(4)-4-4-(4)-4-(4)-4-(4)--|
||--0h=2--2-0h=2--2-0h=2--0h=2--0h=2--|-0h=3--3-0h=3--3-0h=3--0h=3--0h=3---|

|-----------------------------------|-----------------------------------|
|-----------------------------------|-----------------------------------|
|-----------------------------------|-----------------------------------|
|-----------------------------------|-----------------------------------|
|-4-(4)-4-4-(4)-4-4-(4)-4-(4)-4-(4)-|-4-(4)-4-4-(4)-4-4-(4)-4-(4)-4-(4)-|
|-0h=2--2-0h=2--2-0h=2--0h=2--0h=2--|-0h=3--3-0h=3--3-0h=3--0h=3--0h=3--|

|-----------------------------------|-----------------------------------|
|-----------------------------------|-----------------------------------|
|-----------------------------------|-----------------------------------|
|-----------------------------------|-----------------------------------|
|-7-(7)-7-7-(7)-7-7-(7)-7-(7)-7-(7)-|-7-(7)-7-7-(7)-7-7-(7)-7-(7)-7-(7)-|
|-0h=5--5-0h=5--5-0h=5--0h=5--0h=5--|-0h=6--6-0h=6--6-0h=6--0h=6--0h=6--|

|-----------------------------------|------------------------------------||
|-----------------------------------|-----------------------------------o||
|-----------------------------------|------------------------------------||
|-----------------------------------|------------------------------------||
|-7-(7)-7-7-(7)-7-7-(7)-7-(7)-7-(7)-|-7-(7)-7-7-(7)-7-7-(7)-7-(7)-7-(7)-o||
|-0h=5--5-0h=5--5-0h=5--0h=5--0h=5--|-0h=6--6-0h=6--6-0h=6--0h=6--0h=6---||

|-----------------------------------|-----------------------------------|
|-----------------------------------|-----------------------------------|
|-----------------------------------|-----------------------------------|
|-0h=4--4-0h=4--4-0h=4--0h=4--0h=4--|-0h=5--5-0h=5--5-0h=5--0h=5--0h=5--|
|-6-(6)-6-6-(6)-6-6-(6)-6-(6)-6-(6)-|-6-(6)-6-6-(6)-6-6-(6)-6-(6)-6-(6)-|
|-----------------------------------|-----------------------------------|

|------------------------------------|
|------------------------------------|
|------------------------------------|
|-0h=7--7-0h=7--7-0h=7--0h=7--0h=7---|
|-6-(6)-6-6-(6)-6-6-(6)-6-(6)-6-(6)--|
|------------------------------------|

|-----------------------------------------------|
|-----------------------------------------------|
|-----------------------------------------------|
|-----------------------------------------------|
|-14-(14)-14-14-(14)-14-14-(14)-14-(14)-14-(14)-|
|--0h=12--12--0h=12--12--0h=12---0h=12---0h=12--|

|-----------------------------------------------|
|-----------------------------------------------|
|-----------------------------------------------|
|-----------------------------------------------|
|-14-(14)-14-14-(14)-14-14-(14)-14-(14)-14-(14)-|
|--0h=13--13--0h=13--13--0h=13---0h=13---0h=13--|

|-----------------------------------------------|
|-----------------------------------------------|
|-----------------------------------------------|
|-----------------------------------------------|
|-16-(16)-16-16-(16)-16-16-(16)-16-(16)-16-(16)-|
|--0h=14--14--0h=14--14--0h=14---0h=14---0h=14--|

|-----------------------------------------------|
|-----------------------------------------------|
|-----------------------------------------------|
|-----------------------------------------------|
|-16-(16)-16-16-(16)-16-16-(16)-16-(16)-16-(16)-|
|--0h=15--15--0h=15--15--0h=15---0h=15---0h=15--|

 Chorus I
|-----0-------0---|-----1------------|-----0-------0---|-----1-------------|
|-----0-------0---|-----1------------|-----0-------0---|-----1-------------|
|-----4-------4---|-----x------------|-----4-------4---|-----x-------------|
|-2---2---2---2---|-3---3------7S=9--|-2---2---2---2---|-3---3------7S=9---|
|-2-------2-------|-3-------3--5S=7--|-2-------2-------|-3-------3--4S=6---|
|-0-------0-------|-1-------1--------|-0-------0-------|-1-------1---------|

|-----0-------0---|-----1------------|-----0-------0---|-----1-------------|
|-----0-------0---|-----1------------|-----0-------0---|-----1-------------|
|-----4-------4---|-----x------7S=9--|-----4-------4---|-----x------7S=9---|
|-2---2---2---2---|-3---3------7S=9--|-2---2---2---2---|-3---3-------------|
|-2-------2-------|-3-------3--5S=7--|-2-------2-------|-3-------3--5S=7---|
|-0-------0-------|-1-------1--------|-0-------0-------|-1-------1---------|

 Bridge II
|-----------------5-5-----|-----------------5-5-----|
|---------5---5h7-----5-4-|---------5---5h7-----5-4-|
|-----4h6---6-------------|-----4h6---6-------------|
|-------------------------|-------------------------|
|-7-6---------------------|-7-6---------------------|
|-------------------------|-------------------------|
|
|-------------------------|-------------------------|
|-------------------------|-------------------------|
|-----------------7-7-----|-----------------7-7-----|
|---------7---7h9-----7-6-|---------7---7h9-----7-6-|
|-----7s9---9-------------|-----7s9---9-------------|
|-5-4---------------------|-5-4---------------------|

                           3/4
|-----------------5-5-----|-------------|
|---------5---5h7-----5-4-|-------------|
|-----4h6---6-------------|-------------|
|-------------------------|---------5-4-|
|-7-6---------------------|-----3-2-----|
|-------------------------|-5-4---------|
|
|-------------------------|-------------|
|-------------------------|-------------|
|-----------------7-7-----|-------------|
|---------7---7h9-----7-6-|---------5-4-|
|-----7s9---9-------------|-----3-2-----|
|-5-4---------------------|-5-4---------|

 6/4
|-------------------------|--------------------------|
|-------------------------|--------------------------|
|-------------------------|-----------------7s==10---|
|-2-----------------------|-3------------------------|
|-------------------------|--------------------------|
|-------------------------|--------------------------|
|
|-------------------------|------------------------0-|
|-----0---0-------0---0---|-----0---0---0------------|
|-------------------------|-----------------7-7--9---|
|---9---9---9---9---9---9-|---9---9---9---9----------|
|-7-----------7-----------|-8------------------------|
|-------------------------|--------------------------|

|-------------------------|-------------------------------|
|-------------------------|-------------------------------|
|-9-----------------------|-10---------------(10)\--------|
|-------------------------|-------------------------------|
|-------------------------|-------------------------------|
|-------------------------|-------------------------------|
|
|-------------------------|----------------------------0--|
|-----0---0-------0---0---|------0---0---0----------------|
|-------------------------|--------------------7---7-9----|
|---9---9---9---9---9---9-|----9---9---9---9--------------|
|-7-----------7-----------|--8----------------------------|
|-------------------------|-------------------------------|

   Verse I
||--------------------------|--------------------------||
||o-------------3-----------|-------------5-----------o||
||--------4-----------4-----|-------5-----------5------||
||--2-----------------------|-3------------------------||
||o-------------------------|-------------------------o||
||--------------------------|--------------------------||
|
||--------------------------|-----------------------0--||
||o-----0---0-------0---0---|-----0---0---0-----------o||
||--------------------------|-----------------7-7-9----||
||----9---9---9---9---9---9-|---9---9---9---9----------||
||o-7-----------7-----------|-8-----------------------o||
||--------------------------|--------------------------||

||------------------------------|-------------------------------||
||o---------------15------------|---------------17-------------o||
||---------16------------16-----|--------17------------17-------||
||--14--------------------------|-15----------------------------||
||o-----------------------------|------------------------------o||
||------------------------------|-------------------------------||
|
||------------------------------|---------------------------0---||
||o------0----0--------0----0---|------0----0----0-------------o||
||------------------------------|--------------------7--7-9-----||
||-----9----9---9----9----9---9-|----9----9---9----9------------||
||o--7-------------7------------|--8---------------------------o||
||------------------------------|-------------------------------||

|-------------------------|-------------------------|
|-------------------------|-------------------------|
|-0-0-0-0-0-0-0-0-0-0-0-0-|-0-0-0-0-0-0-0-0-0-0-0-0-|
|-2-2-2-2-2-2-2-2-2-2-2-2-|-1-1-1-1-1-1-1-1-2-2-4-4-|
|-------------------------|-------------------------|
|-------------------------|-------------------------|
|
|-------------------------|-------------------------|
|-------------------------|-------------------------|
|-0-0-0-0-0-0-0-0-0-0-0-0-|-0-0-0-0-0-0-0-0-0-0-0-0-|
|-5-5-5-5-5-5-5-5-5-5-5-5-|-5-5-5-5-5-5-5-5-5-5-5-5-|
|-------------------------|-------------------------|
|-------------------------|-------------------------|

|-------------------------|-------------------------|
|-------------------------|-------------------------|
|-0-0-0-0-0-0-0-0-0-0-0-0-|-0-0-0-0-0-0-0-0-0-0-0-0-|
|-5-5-5-5-5-5-5-5-5-5-5-5-|-8-8-8-8-8-8-9-9-9-9-9-9-|
|-------------------------|-------------------------|
|-------------------------|-------------------------|
|
|-------------------------|-------------------------|
|-------------------------|-------------------------|
|-0-0-0-0-0-0-0-0-0-0-0-0-|-0-0-0-0-0-0-0-0-0-0-0-0-|
|-5-5-5-5-5-5-5-5-5-5-5-5-|-5-5-5-5-5-5-5-5-5-5-5-5-|
|-------------------------|-------------------------|
|-------------------------|-------------------------|

|------------------------------------|-------------------------------------|
|------------------------------------|-------------------------------------|
|-0--0--0--0--0--0--0--0--0--0--0--0-|--0--0--0--0--0--0--0--0--0--0--0--0-|
|-2--2--2--2--2--2--2--2--2--2--2--2-|--1--1--1--1--1--1--1--1--2--2--4--4-|
|------------------------------------|-------------------------------------|
|------------------------------------|-------------------------------------|

|------------------------------------|-------------------------------------|
|------------------------------------|-------------------------------------|
|-0--0--0--0--0--0--0--0--0--0--0--0-|--0--0--0--0--0--0--0--0--0--0--0--0-|
|14-14-14-14-14-14-14-14-14-14-14-14-|-13-13-13-13-13-13-13-13-14-14-16-16-|
|------------------------------------|-------------------------------------|
|------------------------------------|-------------------------------------|

|------------------------------------|-------------------------------------|
|------------------------------------|-------------------------------------|
|-0--0--0--0--0--0--0--0--0--0--0--0-|--0--0--0--0--0--0--0--0--0--0--0--0-|
|-5--5--5--5--5--5--5--5--5--5--5--5-|--8--8--8--8--8--8--9--9--9--9--9--9-|
|------------------------------------|-------------------------------------|
|------------------------------------|-------------------------------------|
|
|------------------------------------|-------------------------------------|
|------------------------------------|-------------------------------------|
|-0--0--0--0--0--0--0--0--0--0--0--0-|--0--0--0--0--0--0--0--0--0--0--0--0-|
|17-17-17-17-17-17-17-17-17-17-17-17-|-20-20-20-20-20-20-21-21-21-21-21-21-|
|------------------------------------|-------------------------------------|
|------------------------------------|-------------------------------------|

   Chorus II
||--------------------------|---------------------------|
||o-------------------------|---------------------------|
||--0-0-0-0-0-0-0-0-0-0-0-0-|-0-0-0-0-0-0-0-0-0-0--0--0-|
||--9-9-9-9-9-9-9-9-9-9-9-9-|-8-8-8-8-8-8-8-8-9-9-11-11-|
||o-7-7-7-7-7-7-7-7-7-7-7-7-|-6-6-6-6-6-6-6-6-7-7--9--9-|
||--------------------------|---------------------------|

|------------------------------------|-------------------------------------|
|------------------------------------|-------------------------------------|
|-0--0--0--0--0--0--0--0--0--0--0--0-|--0--0--0--0--0--0--0--0--0--0--0--0-|
|12-12-12-12-12-12-12-12-12-12-12-12-|-15-15-15-15-15-15-16-16-16-16-16-16-|
|10-10-10-10-10-10-10-10-10-10-10-10-|-13-13-13-13-13-13-14-14-14-14-14-14-|
|------------------------------------|-------------------------------------|
   Interlude I
                                                             4x
||------0---0-------0---0---|---------0----------------------||
||o---8-------8---8-------8-|----8---------8----8----8----8-o||
||--9-----9-----9-----9-----|-11---11---11---11---12---11----||
||--------------------------|--------------------------------||
||o-------------------------|-------------------------------o||
||--------------------------|--------------------------------||
|
|                                                            4x
||------0---0-------0---0---|---------0----------------------||
||o---8-------8---8-------8-|----8---------8----8----8----8-o||
||--9-----9-----9-----9-----|-11---11---11---11---12---11----||
||--------------------------|--------------------------------||
||o-------------------------|-------------------------------o||
||--------------------------|--------------------------------||

|----0---------0----0---------0-|---0-------0---0-------0-|
|---------8--------------8------|-------8-----------8-----|
|-------------------------------|-------------------------|
|-10---10---10---10---10---10---|-9---9---9---9---9---9---|
|-------------------------------|-------------------------|
|-------------------------------|-------------------------|
|
|----0---------0----0---------0-|---0-------0---0-------0-|
|---------8--------------8------|-------8-----------8-----|
|-------------------------------|-------------------------|
|-10---10---10---10---10---10---|-9---9---9---9---9---9---|
|-------------------------------|-------------------------|
|-------------------------------|-------------------------|

|---0-------0---0-------0-|---0-------0-------------|
|-------7-----------7-----|-------7-----------------|
|-------------------------|-------------------------|
|-7---7---7---7---7---7---|-7---7---7---------------|
|-------------------------|-------------------------|
|-------------------------|-------------------------|
|
|---0-------0---0-------0-|---0-------0-------------|
|-------7-----------7-----|-------7-----------------|
|-------------------------|-------------------------|
|-7---7---7---7---7---7---|-7---7---7---14--12--11--|
|-------------------------|-------------12--10---9--|
|-------------------------|-------------12--10---9--|

Chorus I

Verse I

Chorus II

Interlude I

Chorus III
|-----0-------0---|-----1------------|-----0-------0---|-----1-------------|
|-----0-------0---|-----1------------|-----0-------0---|-----1-------------|
|-----4-------4---|-----x------------|-----4-------4---|-----x-------------|
|-2---2---2---2---|-3---3------7S=9--|-2---2---2---2---|-3---3------7S=9---|
|-2-------2-------|-3-------3--5S=7--|-2-------2-------|-3-------3--4S=6---|
|-0-------0-------|-1-------1--------|-0-------0-------|-1-------1---------|

|-----0-------0---|-----1--------------|
|-----0-------0---|-----1--------------|
|-----4-------4---|-----x------11S=12--|
|-2---2---2---2---|-3---3-------x---x--|
|-2-------2-------|-3-------3---9S=10--|
|-0-------0-------|-1-------1----------|
|
|-----0-------0---|-----1--------------|
|-----0-------0---|-----1--------------|
|-----4-------4---|-----x--------------|
|-2---2---2---2---|-3---3-------7S==9--|
|-2-------2-------|-3-------3---5S==7--|
|-0-------0-------|-1-------1----------|

|-----0-------0---|-----1----------------|
|-----0-------0---|-----1----------------|
|-----4-------4---|-----x------11S=12----|
|-2---2---2---2---|-3---3-------x---x----|
|-2-------2-------|-3-------3---9S=10----|
|-0-------0-------|-1-------1------------|
|
|-----0-------0---|-----1----------------|
|-----0-------0---|-----1----------------|
|-----4-------4---|-----x-------7S==9----|
|-2---2---2---2---|-3---3-------x---x----|
|-2-------2-------|-3-------3---5S==7----|
|-0-------0-------|-1-------1------------|

|-----0-------0---|-----1--------------|
|-----0-------0---|-----1--------------|
|-----4-------4---|-----x------11S=12--|
|-2---2---2---2---|-3---3-------x---x--|
|-2-------2-------|-3-------3---9S=10--|
|-0-------0-------|-1-------1----------|
|
|-----0-------0---|-----1--------------|
|-----0-------0---|-----1--------------|
|-----4-------4---|-----x-------7S==9--|
|-2---2---2---2---|-3---3-------x---x--|
|-2-------2-------|-3-------3---5S==7--|
|-0-------0-------|-1-------1----------|

|-----0-------0---|-----1----------------|
|-----0-------0---|-----1----------------|
|-----4-------4---|-----x------11S=12----|
|-2---2---2---2---|-3---3-------x---x----|
|-2-------2-------|-3-------3---9S=10----|
|-0-------0-------|-1-------1------------|
|
|-----0-------0---|-----1----------------|
|-----0-------0---|-----1----------------|
|-----4-------4---|-----x-------7S==9----|
|-2---2---2---2---|-3---3-------x---x----|
|-2-------2-------|-3-------3---5S==7----|
|-0-------0-------|-1-------1------------|

Bridge III
|----------------5-5-----|----------------5-5-----|----------------5-5-----|
|--------5---5h7-----5-4-|--------5---5h7-----5-4-|--------5---5h7-----5-4-|
|----4h6---6-------------|----4h6---6-------------|----4h6---6-------------|
|------------------------|------------------------|------------------------|
|7-6---------------------|7-6---------------------|7-6---------------------|
|------------------------|------------------------|------------------------|

|------------------------|------------------------|------------------------|
|------------------------|------------------------|------------------------|
|----------------7-7-----|----------------7-7-----|----------------7-7-----|
|--------7---7h9-----7-6-|--------7---7h9-----7-6-|--------7---7h9-----7-6-|
|----7s9---9-------------|----7s9---9-------------|----7s9---9-------------|
|5-4---------------------|5-4---------------------|5-4---------------------|

|-------------------------|---------------------|----------------|--------|
|-------------------------|---------------------|----------------|--------|
|-------------------------|---------7-6---------|----------------|--------|
|---------5-4---------5-4-|-----5-4-----2---2---|-(2)------------|-(2)----|
|-----3-2---------3-2-----|-7-6---------2---2---|-(2)------------|-(2)----|
|-5-4---------5-4---------|-------------0---0---|-(0)------------|-(0)----|
|
|-------------------------|---------------------|----------------|--------|
|-------------------------|---------------------|----------------|--------|
|-------------------------|---------------------|----------------|--------|
|---------5-4---------5-4-|---------5-4-2---2---|-(2)------------|-(2)----|
|-----3-2---------3-2-----|-----3-2-----2---2---|-(2)------------|-(2)----|
|-5-4---------5-4---------|-5-4---------0---0---|-(0)------------|-(0)----|

 Interlude
 4/4
|--------0-----0------0-----0-----------|
|--8h=10---5h7---8h10---5h7---8h10------|
|---------------------------------------|
|----------------------------------10p0-|
|---------------------------------------|
|---------------------------------------|
|
|---------------------------------------|
|---------------------------------------|
|---------------------------------------|
|-(2)-----------------------------------|
|-(2)-----------------------------------|
|-(0)-----------------------------------|

|--------0-----0------0-----0----------|-----0-----0-----0-----0-------0-|
|--8h=10---5h7---8h10---5h7---8h10-----|-3h5---0h2---3h5---0h2---3h5-----|
|--------------------------------------|-----------------------------0---|
|----------------------------------10\-|---------------------------------|
|--------------------------------------|---------------------------------|
|--------------------------------------|---------------------------------|
|
|--------------------------------------|-----0-----0-----0-----0-------0-|
|--------------------------------------|-3h5---0h2---3h5---0h2---3h5-----|
|--------------------------------------|-----------------------------0---|
|-(2)----------------------------------|---------------------------------|
|-(2)----------------------------------|---------------------------------|
|-(0)----------------------------------|---------------------------------|

|-----0-----0-----0-----0-------0-|
|-3h5---0h2---3h5---0h2---3h5-----|
|-----------------------------0---|
|---------------------------------|
|---------------------------------|
|---------------------------------|

|-----0-----0-----0-----0---------|-----0-----0-----0-----0---------|
|-6h8---3h5---6h8---3h5---6h8-----|-6h8---3h5---6h8---3h5---6h8-----|
|-----------------------------5p0-|-----------------------------5p0-|
|---------------------------------|---------------------------------|
|---------------------------------|---------------------------------|
|---------------------------------|---------------------------------|

   4/4
||-------0-----0------0-----0-----------|
||o-8h10---5h7---8h10---5h7---8h10------|
||--------------------------------------|
||---------------------------------10p0-|
||o-------------------------------------|
||--------------------------------------|

|------0-----0------0-----0----------|-----0-----0-----0-----0-------0---|
|-8h10---5h7---8h10---5h7---8h10-----|-3h5---0h2---3h5---0h2---3h5-------|
|------------------------------------|-----------------------------0-----|
|--------------------------------10\-|-----------------------------------|
|------------------------------------|-----------------------------------|
|------------------------------------|-----------------------------------|

|-----0-----0-----0-----0-------0-|-----0-----0-----0-----0---------|
|-3h5---0h2---3h5---0h2---3h5-----|-6h8---3h5---6h8---3h5---6h8-----|
|-----------------------------0---|-----------------------------5p0-|
|---------------------------------|---------------------------------|
|---------------------------------|---------------------------------|
|---------------------------------|---------------------------------|

                                   3x
|-----0-----0-----0-----0----------||
|-6h8---3h5---6h8---3h5---6h8-----o||
|-----------------------------5p0--||
|----------------------------------||
|---------------------------------o||
|----------------------------------||

   7/8
||------3---0h3-------3---0h3---|-----3---0h3-------3---0h3---|
||o-0h1---1-----1-0h1---1-----1-|-0h1---1-----1-0h1---1-----1-|
||------------------------------|-----------------------------|
||------------------------------|-----------------------------|
||o-----------------------------|-----------------------------|
||------------------------------|-----------------------------|

 3/8     7/8                                                   3/8
|-------|---------0-----------0-----|-------0-----------0-----|---------||
|-------|-------0-----0-----0-----0-|-----0-----0-----0-----0-|--------o||
|-------|-----6-----6-----6-----6---|---6-----6-----6-----6---|---------||
|-7-5-3-|-7s9-----------9-----------|-9-----------9-----------|-7-5-3---||
|-7-5-3-|---------------------------|-------------------------|-7-5-3--o||
|-5-3-1-|---------------------------|-------------------------|-5-3-1---||

   7/8
||------3---0h3-------3---0h3---|-----3---0h3-------3---0h3---|
||o-0h1---1-----1-0h1---1-----1-|-0h1---1-----1-0h1---1-----1-|
||------------------------------|-----------------------------|
||------------------------------|-----------------------------|
||o-----------------------------|-----------------------------|
||------------------------------|-----------------------------|

|---------0-----------0-----|-------0-----------0------||
|-------0-----0-----0-----0-|-----0-----0-----0-----0-o||
|-----6-----6-----6-----6---|---6-----6-----6-----6----||
|-7s9-----------9-----------|-9-----------9------------||
|---------------------------|-------------------------o||
|---------------------------|--------------------------||

 3/8     7/8
|-------|---------0-------------0---|---------0-------------0---|
|-------|-------6-------------8-----|-------6-------------8-----|
|-------|---5-------5-----7-------5-|---5-------5-----7-------9-|
|-7-5-3-|-8---8-------8-8---8-------|-8---8-------8-8---8-------|
|-7-5-3-|---------------------------|---------------------------|
|-5-3-1-|---------------------------|---------------------------|

||-------------3-------------------5-3----|
||o-3-----5------------3-----5------------|
||-----5-----5-------5----5-----5-------5-|
||----------------5-----------------------|
||o---------------------------------------|
||----------------------------------------|
|
||-------------8------------------10-8----|
||o-8----10------------8----10------------|
||----10----10------10---10----10------10-|
||---------------10-----------------------|
||o---------------------------------------|
||----------------------------------------|

|------------3-------------------5-3----|
|-3-----5------------3-----5------------|
|----5-----5-------5----5-----5-------5-|
|---------------5-----------------------|
|---------------------------------------|
|---------------------------------------|
|
|------------8------------------10-8----|
|-8----10------------8----10------------|
|---10----10------10---10----10------10-|
|--------------10-----------------------|
|---------------------------------------|
|---------------------------------------|

  1.
|------------1--0------------3--1----|------------1--0------------3--1----|
|-------1---------------1------------|-------1---------------1------------|
|--3---------------3-----------------|--3---------------3-----------------|
|------------------------------------|------------------------------------|
|----1----1----------1----1--------3-|----1----1----------1----1--------3-|
|------------------------------------|------------------------------------|

|-----------13-12-----------15-13----|-----------13-12-----------15-13----|
|-11---13---------11---13------------|-11---13---------11---13------------|
|------------------------------------|------------------------------------|
|----8----8----------8----8-------10-|----8----8----------8----8-------10-|
|------------------------------------|------------------------------------|
|------------------------------------|------------------------------------|

  2.
 3/8     7/8
|-------|-----------------------------|-14-------------------------|
|-------|----------------14-----------|--------------14------------|
|-------|-----------------------------|----------------------------|
|-7-5-3-|-11--------------------------|----------------------------|
|-7-5-3-|-----------------------------|----------------------------|
|-5-3-1-|-----------------------------|----------------------------|
|
|-------|----------0------------0-----|--------0------------0------|
|-------|--------0-----0------0-----0-|------0-----0------0-----0--|
|-------|------6-----6------6-----6---|----6-----6------6-----6----|
|-7-5-3-|--7s9------------9-----------|--9------------9------------|
|-7-5-3-|-----------------------------|----------------------------|
|-5-3-1-|-----------------------------|----------------------------|

 3/8    7/8
|-------|-------------------------------|
|-(14)--|-----------------8-------------|
|-------|-------------------------------|
|-------|-4h5---------------------------|
|-------|-------------------------------|
|-------|-------------------------------|
|
|-------|-------3---0h3-------3---0h3---|
|-------|---0h1---1-----1-0h1---1-----1-|
|-------|-------------------------------|
|-7-5-3-|-------------------------------|
|-7-5-3-|-------------------------------|
|-5-3-1-|-------------------------------|

                               3/8
|-7b-r-b-r-b-r-----------------|---------|
|----------------8~------------|---------|
|------------------------------|---------|
|------------------------------|-7-5-3---|
|------------------------------|-7-5-3---|
|------------------------------|-5-3-1---|
|
|-----3---0h3--------3---0h3---|---------|
|-0h1---1-----1--0h1---1-----1-|---------|
|------------------------------|---------|
|------------------------------|---------|
|------------------------------|---------|
|------------------------------|---------|

   Interlude
   6/4
||--------------------------|--------------------------|
||o-------------------------|--------------------------|
||--------------------------|-------------------5-4----|
||--------------------3-2---|-------4---5-4-7-5-----7--|
||o-------2---3-2-5-3-----5-|-4-7-5---7----------------|
||--2-5-3---5---------------|--------------------------|
|
||--------------------------|--------------------------|
||o-------------------------|--------------------------|
||--------------------------|--------------------------|
||--------------------3-2---|-------------------3-2----|
||o-------2---3-2-5-3-----5-|-------2---3-2-5-3-----5--|
||--2-5-3---5---------------|-2-5-3---5----------------|

|-------------------------|------------------------------||
|-------------------------|-----------------------------o||
|-------------------------|-----------------7----10-9-7--||
|---------------5---8-7-5-|---7----9-7-10-9---10---------||
|---5---7-5-8-7---8-------|-9---10----------------------o||
|-7---8-------------------|------------------------------||
|
|-------------------------|------------------------------||
|-------------------------|-----------------------------o||
|-------------------------|------------------------------||
|---------------5---8-7-5-|-----------------5-----8-7-5--||
|---5---7-5-8-7---8-------|---5----7-5--8-7----8--------o||
|-7---8-------------------|-7----8-----------------------||

   Outro
   4/4
||-------------|-----------------|------------|------------------|
||o------------|-----------------|------------|------------------|
||-------------|-----------------|------------|------------------|
||-----9---9---|-9---6S=14-14-14-|----9---9---|-9---6S=14-14-14--|
||o----7---6---|-7---7S=15-15-15-|----7---6---|-7---7S=15-15-15--|
||--0----------|-----------------|-0----------|------------------|

|------------|-----------------|------------|------------------||
|------------|-----------------|------------|-----------------o||
|------------|-----------------|------------|------------------||
|----7---7---|-7---4S=12-12-12-|----7---7---|-7---4S=12-12-12--||
|----5---4---|-5---5S=13-13-13-|----5---4---|-5---5S=13-13-13-o||
|-0----------|-----------------|-0----------|------------------||


(Repeat Riff Above As Background)
     PM------------------------------------------------
||--------12----12----------|-------12----12----------|
||o-15-15----15----15-15-15-|-15-15----15----15-15-15-|
||--------------------------|-------------------------|
||--------------------------|-------------------------|
||o-------------------------|-------------------------|
||--------------------------|-------------------------|

 ------------------------------------------------|
|-------12----12----------|-------12----12-----------|
|-15-15----15----15-15-15-|-15-15----15----15-15-15--|
|-------------------------|--------------------------|
|-------------------------|--------------------------|
|-------------------------|--------------------------|
|-------------------------|--------------------------|

|-------------0----------|-------------0----------|
|-------12------12----12-|-------12------12----12-|
|-14-14----14------14----|-14-14----14------14----|
|------------------------|------------------------|
|------------------------|------------------------|
|------------------------|------------------------|

|-------------0----------|-------------0-----------||
|-------12------12----12-|-------12------12----12-o||
|-14-14----14------14----|-14-14----14------14-----||
|------------------------|-------------------------||
|------------------------|------------------------o||
|------------------------|-------------------------||

 Guitar Solo
|-----------------------------------|
|-----------------------------------|
|-----------------------------------|
|-----------------------------------|
|-----------------------------------|
|-0h3h5-0h3h5-0h5h7-0h5h7-0h10h12-0h|

|---------------------------------------------|
|---------------------------------------------|
|---------------------------------------------|
|-------------------------0h12h14--0h14p12-0h=|
|---------0h10h12-0h10h12---------------------|
|-10h12-0-------------------------------------|

|---------------------------------------0h12p|
|-----------------------0h12h15-0h12h15------|
|-------0h12h14-0h12h14----------------------|
|-14p12--------------------------------------|
|--------------------------------------------|
|--------------------------------------------|

|-10-0h12p10-0h12p10-0h12h15--0h12p10---------|
|-------------------------------------0h12p10-|
|---------------------------------------------|
|---------------------------------------------|
|---------------------------------------------|
|---------------------------------------------|

|-0h12p10-----------------------------------|
|---------0h15p12---------------------------|
|-----------------0h14p12---------0h12h14---|
|-------------------------0h14p12---------0h|
|-------------------------------------------|
|-------------------------------------------|

|-------------------------------0h10h12--0h10h=|
|---------------0h12h15-0h12h15----------------|
|-------0h12h14--------------------------------|
|-14p12----------------------------------------|
|----------------------------------------------|
|----------------------------------------------|

|-12-0h12h15-0h12p10-0h12p10-0h12h15-0h12h15-|
|--------------------------------------------|
|--------------------------------------------|
|--------------------------------------------|
|--------------------------------------------|
|--------------------------------------------|

|-0h12h15-0h12h15-0h15h17-0h12h15--0h12p10-0-|
|--------------------------------------------|
|--------------------------------------------|
|--------------------------------------------|
|--------------------------------------------|
|--------------------------------------------|

|-0h12p10-0h12p10-0h12p10-0-17b18.5====|
|--------------------------------------|
|--------------------------------------|
|--------------------------------------|
|--------------------------------------|
|--------------------------------------|

|-17r=12h15p12p0-------------------------|
|----------------12h15p12p0----12--------|
|---------------------------15----14p12--|
|----------------------------------------|
|----------------------------------------|
|----------------------------------------|

|-12-------12-------12-------12-------12-------12-|
|-------------------------------------------------|
|----14h15----14p12----14h15----14p12----14h15----|
|-------------------------------------------------|
|-------------------------------------------------|
|-------------------------------------------------|

|-------12-------12-------12-------12-------12----|
|-------------------------------------------------|
|-14p12----14h15----14p12----14h15----14p12----14-|
|-------------------------------------------------|
|-------------------------------------------------|
|-------------------------------------------------|

|----------------------|-----------------------|
|---12~--11-12~--12-11-|-12~-12-11-12-13~------|
|-x-12~--11-12~--12-11-|-12~-12-11-12-13~------|
|-x-12~--11-12~--12-11-|-12~-12-11-12-13~------|
|----------------------|-----------------------|
|----------------------|-----------------------|

|----------------------|-----------------------|
|---12~--11-12~--12-11-|-12~-12-11-12-13~------|
|-x-12~--11-12~--12-11-|-12~-12-11-12-13~------|
|-x-12~--11-12~--12-11-|-12~-12-11-12-13~------|
|----------------------|-----------------------|
|----------------------|-----------------------|

|-17h18p17p15h17p15-------17h18p17p15h17p15-------|
|-------------------17p15-------------------17p15-|
|-------------------------------------------------|
|-------------------------------------------------|
|-------------------------------------------------|
|-------------------------------------------------|

|-17h18p17p15h17p15-------17h18p17p15h17p15-------|
|-------------------17p15-------------------17p15-|
|-------------------------------------------------|
|-------------------------------------------------|
|-------------------------------------------------|
|-------------------------------------------------|

|-17p15----17p15----17h20p17-15----15-17p15----17p15----17h20p17-15----15-|
|-------17-------17-------------17----------17-------17-------------17----|
|-------------------------------------------------------------------------|
|-------------------------------------------------------------------------|
|-------------------------------------------------------------------------|
|-------------------------------------------------------------------------|

|-17p15----17p15----17h20p17-15----15-17p15----17p15----17h20p17-15----15--|
|-------17-------17-------------17----------17-------17-------------17-----|
|--------------------------------------------------------------------------|
|--------------------------------------------------------------------------|
|--------------------------------------------------------------------------|
|--------------------------------------------------------------------------|

|--------22--------22--------|-22--------22----------22-------|
|-22b24-----22b24-----22b24--|----22b24-----22b24-------22b24-|
|----------------------------|--------------------------------|
|----------------------------|--------------------------------|
|----------------------------|--------------------------------|
|----------------------------|--------------------------------|

|-22-------22-------22-|------22-------22-------22-|-------22-------22------
|----22b24----22b24----|22b24----22b24----22b24----|-22b24----22b24---22b24-
|----------------------|---------------------------|------------------------
|----------------------|---------------------------|------------------------
|----------------------|---------------------------|------------------------
|----------------------|---------------------------|------------------------

|-22----------22-------22-----|
|----22b24-------22b24--------|
|-----------------------------|
|-----------------------------|
|-----------------------------|
|-----------------------------|

Outro
    PM|   PM|   PM|     PM|   PM|         PM|   PM|   PM|     PM|   PM|
|------------------|------------------|---------------|--------------------|
|------------------|------------------|---------------|--------------------|
|------------------|------------------|---------------|--------------------|
|-----9-----9------|-9-----6----14-14-|----9-----9----|-9-----6-----14-14--|
|-----7-----6------|-7-----7----15-15-|----7-----6----|-7-----7-----15-15--|
|--0-0---0-0---0-0-|--0-0---0-0-------|-0-0--0-0--0-0-|---0-0---0-0--------|

  PM|   PM|   PM|     PM|   PM|         PM|   PM|   PM|     PM|   PM|       6x
|-----------------|-------------------|-----------------|-------------------
|-----------------|-------------------|-----------------|-------------------
|-----------------|-------------------|-----------------|-------------------
|-----7-----7-----|-7-----4-----12-12-|-----7-----7-----|-7-----4-----12-12-
|-----5-----4-----|-5-----5-----13-13-|-----5-----4-----|-5-----5-----13-13-
|-0-0---0-0---0-0-|---0-0---0-0-------|-0-0---0-0---0-0-|---0-0---0-0-------

|------------|--------------|------------|--------*|
|------------|--------------|------------|--------*|
|------------|--------------|------------|--------*|
|----9---9---|-9---6----(6)-|-(6)--------|-(6)----*|
|----7---6---|-7---7----(7)-|-(7)--------|-(7)----*|
|-0--0---0---|-0---0----(0)-|-(0)--------|-(0)----*|
Tap to rate this tab
 
# A B C D E F G H I J K L M N O P Q R S T U V W X Y Z