Song name
# A B C D E F G H I J K L M N O P Q R S T U V W X Y Z

Mastodon - Wofl Is Loose tab

Song: The Wolf Is Loose
Band: Mastodon
Album: Blood Mountain
Tuning: D Standard (DGCFAD)
Contact: robbington@gmail.com

Note: Repetitions not noted

 Intro/Verse
|---------------------------------------------|
|---------------------------------------------|
|----9-5555----9-5555-----12-8888----12-8888--|
|--2-9-5555--2-9-5555---2-12-8888--2-12-8888--|
|--2-7-3333--2-7-3333---2-10-6666--2-10-6666--|
|--0---------0----------0----------0----------|

 Pre Chorus
|-------------------------------------------|
|-------------------------------------------|
|--11-12-11---11-12-11---11-9-12---11-9-12--|
|--XX-XX-XX---XX-XX-XX---XX-X-XX---XX-X-XX--|
|---9-10--9----9-10--9----9-7-10----9-7-10--|
|-------------------------------------------|

|-----------------------------------------------------|
|-----------------------------------------------------|
|--11-12-11---11-12-11--11-9-14-14-14-14-14-14-14-14--|
|--11-12-11---11-12-11--XX-X-XX-XX-XX-XX-XX-XX-XX-XX--|
|---9-10--9----9-10--9---9-7-12-12-12-12-12-12-12-12--|
|-----------------------------------------------------|

  Chorus
|----------------------------------------------------|
|----------------------------------------------------|
|--16-12-11---14-11-9--11-9-11-12-12-12-12-12-12-12--|
|--XX-XX-XX---14-11-9--11-7-11-XX-XX-XX-XX-XX-XX-XX--|
|--14-10--9---12--9-7---9-7--9-10-10-10-10-10-10-10--|
|----------------------------------------------------|

 Bridge
|-------------------------|
|-------------------------|
|-------------------------|
|--2-0-22-0-22-0----------|
|----------------1-1-0----|
|----------------------3--|

|-------------------------------------------------------------|
|-------------------------------------------------------------|
|-------------------------------------------------------------|
|--2-0-33333333---2-0-55555555---2-0-55555555---2-0-77777777--|
|-------------------------------------------------------------|
|-------------------------------------------------------------|

|-------------------------|
|-------------------------|
|-------------------------|
|--2-0-22-0-22-0----------|
|----------------1-1-0----|
|----------------------3--|

|-------------------------------------------------------------|
|-------------------------------------------------------------|
|-------------------------------------------------------------|
|--2-0-33333333---2-0-55555555---2-0-55555555---2-0-77777777--|
|-------------------------------------------------------------|
|-------------------------------------------------------------|

|-----------------------------------------------|
|-----------------------------------------------|
|-----------------------------------------------|
|-----------------------------------------------|
|----7-----------7-----------7---------3-3-3-3--|
|--0---0000000-0---0000000-0---0000000-1-1-1-1--|

|-------------------------|
|-------------------------|
|-------------------------|
|--2-0-22-0-22-0----------|
|----------------1-1-0----|
|----------------------3--|

|---------------------------------------------------------------------------------|
|---------------------------------------------------------------------------------|
|-------------------------------------------------------------7777777799999999----|
|--2-0-33333333---2-0-55555555---2-0-77777777---2-0-99999999----------------------|
|---------------------------------------------------------------------------------|
|---------------------------------------------------------------------------------|

 Solo
|----------------------------------|
|----------------------------------|
|--9-7-----------------------------|
|------10-9-7----------------------|
|-------------10-8-7---------------|
|--------------------10-8-7-5-3-0--|

|--------------------------------|
|--------------------------------|
|--10-9-7------------------------|
|---------10-9-7-----------------|
|----------------10-8-7-5-7-8-7--|
|--------------------------------|

|----------------------------------|
|----------------------------------|
|--9-7-----------------------------|
|------10-9-7----------------------|
|-------------10-8-7---------------|
|--------------------10-8-7-5-3-0--|

|--------------------------------|
|--------------------------------|
|--10-9-7------------------------|
|---------10-9-7-----------------|
|----------------10-8-7-5-7-8-7--|
|--------------------------------|

|----------------------------------|
|----------------------------------|
|--9-7-----------------------------|
|------10-9-7----------------------|
|-------------10-8-7---------------|
|--------------------10-8-7-5-3-0--|

|--------------------------------|
|--------------------------------|
|--10-9-7------------------------|
|---------10-9-7-----------------|
|----------------10-8-7-5-7-8-7--|
|--------------------------------|

|-----------------------------------------|
|-----------------------------------------|
|--9-7------------------------------------|
|------10-9-7-----------------------3--5--|
|-------------10-8-7----------------3--5--|
|--------------------10-8-7-5-3-0---1--3--|

 Post... Solo? LOL!
|---------------------------------------------------------------------------------------------|
|---------------------------------------------------------------------------------------------|
|---------------------------------------------------------------------------------------------|
|--777-5-7----777-5-7-9--101010-9-10-----101010-9-10-12--14-14-14-12-14----14-14-14-12-14-12--|
|--777-5-7----777-5-7-9--101010-9-10-----101010-9-10-12--14-14-14-12-14----14-14-14-12-14-12--|
|--555-3-5-0--555-3-5-7---8-8-8-7--8--0---8-8-8-7--8-10--12-12-12-10-12-0--12-12-12-10-12-10--|

|---------------------------------|
|---------------------------------|
|---------------------------------|
|--101010-9-10-----101010-9-10-9--|
|--101010-9-10-----101010-9-10-9--|
|---8-8-8-7--8--0---8-8-8-7--8-7--|

|--------------------------------------------------------|
|--------------------------------------------------------|
|--------------------------------------------------------|
|--777-5-7----777-5-7-9--101010-9-10-----101010-9-10-12--|
|--777-5-7----777-5-7-9--101010-9-10-----101010-9-10-12--|
|--555-3-5-0--555-3-5-7---8-8-8-7--8--0---8-8-8-7--8-10--|

|-------------------------------------------------------------|
|--10-9-7------------9-7----------------7---------------------|
|---------10-9-7---------10-9-7-----------10-9-7--------------|
|----------------11-------------10-7-------------10-7--8--10--|
|-------------------------------------------------------------|
|-------------------------------------------------------------|

|--------------------------------------------------------|
|--------------------------------------------------------|
|--------------------------------------------------------|
|--777-5-7----777-5-7-9--101010-9-10-----101010-9-10-12--|
|--777-5-7----777-5-7-9--101010-9-10-----101010-9-10-12--|
|--555-3-5-0--555-3-5-7---8-8-8-7--8--0---8-8-8-7--8-10--|

|-----------------------------------------------------------------|
|--10-9-7------------9-7----------------7-------------------------|
|---------10-9-7---------10-9-7-----------10-9-7------------------|
|----------------11-------------10-7-------------10-7--8--10--12--|
|-----------------------------------------------------------------|
|-----------------------------------------------------------------|

 Outro
|---------------------------------------------|
|---------------------------------------------|
|----9-5555----9-5555-----12-8888----12-8888--|
|--2-9-5555--2-9-5555---2-12-8888--2-12-8888--|
|--2-7-3333--2-7-3333---2-10-6666--2-10-6666--|
|--0---------0----------0----------0----------|

|------------------------------------------------------------------------------|
|------------------------------------------------------------------------------|
|------------------------------------------------------------------------------|
|--2-0--2-0--2-0-33333333--2-0--2-0--2-0-33333333--2-0-33333333--2-0-33333333--|
|---2----2------------------0----0---------------------------------------------|
|------------------------------------------------------------------------------|

|------------------------------|
|------------------------------|
|------------------------------|
|--2-0-55555555--2-0-55555555--|
|------------------------------|
|------------------------------|

|--------------------------------------|
|--------------------------------------|
|--------------------------------------|
|--2-0--------------3-2-0--------------|
|------3-2-0--------------3-2-0--------|
|------------3-1-0--------------1s3-0--|

Note: Does not having timing for repeated riffs.
Note 2: Jono = loves mansecks.
Tap to rate this tab
# A B C D E F G H I J K L M N O P Q R S T U V W X Y Z