Song name
# A B C D E F G H I J K L M N O P Q R S T U V W X Y Z

Mastodon - Colony Of Birchmen tab

-------------------------------------------------------------------------------
			     SONG NAME - Band Name
-------------------------------------------------------------------------------
Tabbed by: Jeff Perrin

Tuning: DGCFAD

Intro (0:00)
    pm..      pm        pm     pm.      pm        pm     pm.              pm
e|--------15-----15\14----------------------------------------15-15-15/17--14\-|
B|---------x------x--------12-------12-----12/13-----12--------x--x--x------x--|
G|--------12-----12\11------x--------x------x---------x-------12-12-12/14--11\-|
D|--------------------------9--------9------9/10------9------------------------|
A|------------x---------x------x-x------x---------x------x-x--------------x----|
E|-0-0-0-----------------------------------------------------------------------|
 |
e|-----------------------------------------------------------------------------|
B|-----------------------------------------------------------------------------|
G|-------12------12\11------4--------4------4/5-------4-------12-12-12/14--11\-|
D|--------x-------x---------x--------x------x---------x--------x--x--x------x--|
A|-------10---x--10\9-------2--------2------2/3-------2-------10-10-10/12---9\-|
E|-0-0-0--0-------0-----0---0--0-0---0--0---0-----0---0--0-0--------------0----|

e|---------------0-|
B|-------0-----0---|
G|-----0---6/7-----|
D|-5h7-------------|
A|-----------------|
E|-----------------|
 |
e|---------------0-|
B|-------0-----0-0-|
G|-----0-------0-0-|
D|-5/7-------------|
A|-x-------4/5-----|
E|-3/5-------------|

Verse (0:07, 0:49)
      pm..     pm        pm    pm..     pm        pm    pm.    pm
e|----------------------------------------------------------------------|
B|----------------------------------------------------------------------|
G|----------------------------------------------------------------------|
D|-9--------9---------9-----9--------9---------9-----9-------9--------9-|
A|-7-------11--------11-----7-------11--------11-----7------11-------11-|
E|-0--0--0--0--0--13-----0--0--0--0--0--0--13-----0--0--0-0-0--0--13----|

       pm..     pm          pm..
e|-------------------------------|
B|-------------------------------|
G|-------------------------------|
D|-------------------------------|
A|-11-------11-------9---9-------|
E|--9--9--9-10--10--11--11--0--0-|

Chorus(0:30, 1:12, 2:12)
       pm.........................      pm........................
e|----------------------------------------------------------------|
B|----------------------------------------------------------------|
G|---------------------------------11-----------------------------|
D|-14-------------------------------9-----------------------------|
A|-11-------------------------------9-----------------------------|
E|-----0-0-0-0-0-0-0-0-0-0-0-0-0-0------0-0-0-0-0-0-0-0-0-0-0-0-0-|

      pm.........................      pm..........................
e|-----------------------------------------------------------------|
B|-----------------------------------------------------------------|
G|-7-------------------------------9-------------------------------|
D|-x-------------------------------x-------------------------------|
A|-5-------------------------------7-----------9-7-6\4-------------|
E|----0-0-0-0-0-0-0-0-0-0-0-0-0-0------0-0-0-0-0-0-0-0-7-5-4-2-0-0-|

   pm.............................................................          
e|----------------------------------------------------------------|
B|----------------------------------------------------------------|
G|----------------------------------------------------------------|
D|----------------------------------------------------------------|
A|-------------9-7-6\4-------------------------9-7-6\4------------|
E|-0-0-0-0-0-0-0-0-0-0-7-5-4-2-0-0-2-2-2-2-2-2-0-0-0-0-7-5-4-2-0-0|

   pm.................
e|-----------------------------|
B|-----------------------------|
G|-----------------------------|
D|---------------------5--4--5-|
A|---------------------7--5--7-|
E|-3-3-3-3-3-3-5-5-5-5---------|

Instrumental Breakdown (1:31, 2:31)
e|-----------------------------------------------------------------------------------------|
B|-----------------------------------------------------------------------------------------|
G|--------------------------------------------------------7--7--7--9/11---------10~--------|
D|------------------------------------------------------------------------11~--------------|
A|-----------------------------------------------------------------------------------------|
E|----------10-----10\9\-----------10/12/14\12\10\9----------------------------------------|
 |    pm..      pm            pm..                  pm..                         
e|-----------------------------------------------------------------------------------------|
B|-----------------------------------------------------------------------------------------|
G|----------12-----12\11\-----------5//7//9\\7\\5\4-------12-12-12-14/16--11\-------------0|
D|-----------x------x---------------x---------------------x--x--x--x---x---x-------0----0--|
A|-2--------10-----10\9\---2--------3//5//7\\5\\3\2-------10-10-10-12/14---9-----0---/5----|
E|-0--0--0------0----------0--0--0------------------0--0----------------------/5-----------|
 |    pm..     pm      pm     pm..                  pm..  
e|-----------------------------------------------------------------------------------------|
B|-----------------------------------------------------------------------------------------|
G|----------7-----7\6---------------5//7//9\\7\\5\4------12-12-12-14/16--11\--------------0|
D|----------5-----5\4---------------x---------------------x--x--x--x------x--------0----0--|
A|-2--------5-----5\4------2--------3//5//7\\5\\3\2------10-10-10-12/14---9\-----0---/5----|
E|-0--0--0--0--0--0----0---0--0--0------------------0--0----------------------/5-----------|

      pm..     pm..     pm..     pm..     pm..      pm....
e|---------------------------------------------------------|
B|---------------------------------------------------------|
G|---------------------------------------------------------|
D|---------------------------------------------------------|
A|-7--------7--------7--------7--------6---------9---------|
E|-8--8--8--8--8--8--7--7--7--7--7--7--7--7--7--10--10--10-|

Bridge (1:55, 2:55)
e|--------------0------------------------0----------------------------------|
B|----------0-------0----------------0-------0---------------0------------0-|
G|------9----------------9-------8---------------0-------8------------11----|
D|-10------------------------9-----------------------9-----------/12--------|
A|--------------------------------------------------------------------------|
E|--------------------------------------------------------------------------|
 |
e|--------------0------------------------0----------------------------------|
B|------------------0------------------------0------------------------------|
G|----------------------0------------------------0--------------------------|
D|----------10-----------------------9-----------------------9------------12|
A|------7------------------------7-----------------------6-------------9----|
E|--8------------------------7-----------------------7-----------/10--------|

2nd I.B. (3:13)
     pm.....     pm.....     pm.........     pm.     pm.     pm.....
e|-------------------------------------------------------------------|
B|-------------------------------------------------------------------|
G|-------------------------------------------------------------------|
D|-------------------------------------------------------------------|
A|-5---------5-5---------5-5-------------7p5-----5h7-----5h7---------|
E|-0-0-0-0-0-0-0-0-0-0-0-0-0-0-0-0-0-0-0-----0-0-----0-0-----0-0-0-0-|

       pm.....     pm.........     pm.     pm.     pm.....     pm.....
e|---------------------------------------------------------------------|
B|---------------------------------------------------------------------|
G|---------------------------------------------------------------------|
D|---------------------------------------------------------------------|
A|-5-5---------7-7-------------7p5-----5h7-----5h7---------5-5---------|
E|-0-0-0-0-0-0-0-0-0-0-0-0-0-0-----0-0-----0-0-----0-0-0-0-0-0-0-0-0-0-|

       pm.........     pm.     pm.     pm.
e|-----------------------------------------|
B|-----------------------------------------|
G|-----------------------------------------|
D|-----------------------------------------|
A|-5-5-------------7p5-----5h7-----5h7-----|
E|-0-0-0-0-0-0-0-0-----0-0-----0-0-----0-0-|

Outro Solo (3:28)
e|---------------------------------------------------------------------------|
B|---------------------------------------------------------------------------|
G|---------------------------------------------------------------------------|
D|-----------------------------/9-7p5tr~~~~/9~~~~----------------------------|
A|-5h7tr~~~~~~~~~~~~~~/14~~~~\---------------------5h7tr~~~~~/9~~~~~~/14-----|
E|---------------------------------------------------------------------------|

e|------------------------------------------------12--12--12------------|
B|-------------------------12--12--12--12--12-12----15--15--15b(17)~~~~-|
G|---------12--12--12--12----------------14-----14----------------------|
D|-12--12------------14--14--14--14--14---------------------------------|
A|---14--14--14--14-----------------------------------------------------|
E|----------------------------------------------------------------------|

   tp.................
e|----------------------------------------------------------------------|
B|-15\10--8--10p8\7--7--8p7---------------------------------------------|
G|---------------------------9--7--9--7--9/11--11~~~--9h11p9\7--7/9~~~~~|
D|----------------------------------------------------------------------|
A|----------------------------------------------------------------------|
E|----------------------------------------------------------------------|

e|-------------------------0-0-0-0-2-2-0-0-----------------------------|
B|-------------------------3-3-0-0---------3-3-------------------------|
G|-------------0-0-2-2-4-4---------------------4-4-2-2-0-0-------------|
D|-0-0-2-2-4-4---------------------------------------------4-4-2-2-0-0-|
A|---------------------------------------------------------------------|
E|---------------------------------------------------------------------|

e|---------------------------------------------------------------------------------|
B|---------------------------------------------------------------------------------|
G|---------0-0---------------------0-0---------------------------------------------|
D|-2-2-4-4-----4-4-2-2-0-0-2-2-4-4-----4-4-2-2-0-0-2-2-0-4-4-4---4-4-4b(5)r(4)-4-4-|
A|-------------------------------------------------------------0-------------------|
E|---------------------------------------------------------------------------------|

               tp...............................................
e|------12-12--12--10---9--7--5--0--0--0--------0--0--0--0---0-0----0-0-0-|
B|-0-12-12-15--15--12--10--9--7--5--3--2--0--2--3--2--0--5---2/7----------|
G|------------------------------------------------------------------------|
D|------------------------------------------------------------------------|
A|------------------------------------------------------------------------|
E|------------------------------------------------------------------------|

e|-10b(12)-|
B|---------|
G|---------|
D|---------|
A|---------|
E|---------|
 |
e|---------|
B|---------|
G|---------|
D|--9------|
A|--7------|
E|--0------|
 |
e|---------|
B|---------|
G|---------|
D|---------|
A|--2------|
E|--0------|


This forest is growing faster than I can tell
Cell structure eats away at a massive swell
Seems however I'm a victim of circumstance
Hunt for ogres and dwarfs
Lion slicer
Run with death
Run with death
White faces coming closer with every step
Earth envelopes taking breath without happenstance
Carve my teeth out ripping through the sheep's head curse
Hunter gatherer
Ridden from the cave
Run with death
Run with death
Gone away
My heart's gone away
Taking everything
My heart's gone away
Take it now
Hunt for ogres and dwarfs
Lion slicer
Run with death
Run with death
Gone away
My heart's gone away
Taking everything
My heart's gone away
Take it now

| /  slide up
| \  slide down
| h  hammer-on
| p  pull-off
| ~  vibrato
| +  harmonic
| x  Mute note
| pm Palm Mute
| tp Tremelo (Speed) Picking

===============================================================================
Tap to rate this tab
# A B C D E F G H I J K L M N O P Q R S T U V W X Y Z