Guitaretab - guitar tabs
Song name
# A B C D E F G H I J K L M N O P Q R S T U V W X Y Z

Mastodon - This Mortal Soil tab

Im really not sure about the intro so email if u can correct it....i just played it by 
Adress:that_coldplay_guy@hotmail.com

D|--4-----------|--4------------|--------------|----------------|
A|--5-----------|--5------------|--9-----------|--9-------------|
F|--6-----------|--6------------|--9-----------|--9-------------|
C|--6-----------|--6------------|--9-----------|--9-------------|
G|--4-----------|--4------------|--7-----------|--7-------------|
D|--------------|---------------|--------------|----------------|


D|--7-----------|--9------------|
A|--8-----------|--10-----------|
F|--7-----------|--9------------|
C|--9-----------|--11-----------|
G|--10----------|--12-----------|
D|--------------|---------------|

D|--------------|-------------------------|
A|--------------|-------------------------|
F|--------------|-------------------------|
C|-----4-4h6-4--|-----4-6h7p6-4-6-4---4---|
G|-0-4----------|-0-4---------------7-----|
D|--------------|-------------------------|

D|--------------|------------------------------------------|
A|--------------|------------------------------------------|
F|--------------|------------------------------------------|
C|-----7-7h9-7--|-----7-9h10p9-7-9-7----7------------------|
G|-0-7----------|-0-7----------------10--------10~---12~---|
D|--------------|------------------------------------------|

D|------------------------------------------------------------|
A|------------------------------------------------------------|
F|------------------------------------------------------------|
C|---6-------------6---------------6-------------6------------|
G|-----4-5-7---------4-5-7-----------4-5-7---------4-5-7------|
D|-2--------5----2---------5-7---2---------5---2---------5-7--|

D|------------------------------------------------------------|
A|------------------------------------------------------------|
F|-----------------------6---------------------------6--------|
C|---9---0-6-7-----9-------7-----9---0-6-7-----9-------7------|
G|-0---7---------0---7-0-------0---7---------0---7-0----------|
D|------------------------------------------------------------|

D|------------------------------|
A|------------------------------|
F|------------------------------|
C|-7-6-4-2-2---7-6-4-2-4/6\4-2--|
G|-7-6-4-2-2---7-6-4-2-4/6\4-2--|
D|-5-4-2-0-0---5-4-2-0-2/4\2-0--|

D|-----------------------------------------------|
A|-----------------------------------------------|
F|-----------------------------------------------|
C|-----------------------------------------------|
G|-----------------------------------------------|
D|-9h12-9\7-7h9-7\5-2-2~--9h12-9\7-7h9-7\5-2-2~--|
[ Tab from: http://www.guitaretab.com/m/mastodon/80212.html ]
D|-----------------------------------------------|
A|-----------------------------------------------|
F|-----------------------------------------------|
C|-----------------------------------------------|
G|-----------------------------------------------|
D|-0-5h7-5\4-2h4-2p0-0-0--9h12-9\7-7h9-7\5-2-2~--|

D|-----------------------------------------------------------|
A|-----------------------------------------------------------|
F|-----------------------------------------------------------|
C|---------2-4-6h7p6-4-6-4--4-----------2-4-6h7p6-4-6-4---4--|
G|-----2-4-----------------7--------2-4-----------------7----|
D|-2-5--------------------------2-5--------------------------|

D|----------------------------------------------------------------------|
A|----------------------------------------------------------------------|
F|----------------7-7-7-7-7-7-7--------9-----11-------12-------14~------|
C|-0-0-0-0-0-0-0-------------------------------------------------------|
G|---------------------------------7-7---9-9----10-10----12-12----------|
D|----------------------------------------------------------------------|
                                   . .   . .    .  .      .  .

D|-------------------------------------------------|
A|-------------------------------------------------|
F|-------------------------------------------------|
C|-4--4--4--6--6--7--7--9---7--6--7---2---2---4--|
G|--4--4--4--6--6--7--7--9--7--6--7---2--2---4--|
D|--2--2--2--4--4--5--5--7--5--4--5----0---0---2--|

e|-------------------------------------------------|
B|-------------------------------------------------|
G|-------------------------------------------------|
D|--11-11-11--9--9--7-7--6--7--6----7--2---2---4--|
A|--11-11-11--9--9--7-7--6--7--6----7---2--2---4--|
E|--9--9--9---7--7--5-5--4--5--4----5---0---0---2--|

D|------------------------------------------|
A|------------------------------------------|
F|------------------------------------------|
C|------------------------------------------|
G|--------------------------------------3-3-|
D|--5--7-8-8/10---8-78p7\5-5---7p5\3---3--|

D|-------------|----------------|-------------|
A|-------------|----------------|-------------|
F|-------------|----------------|---------2-2-|
C|--4--6-7-7/9-|--7-6-7p6\4---4-|--6p4\2---2--|
G|-------------|----------------|-------------|
D|-------------|----------------|-------------|

Well theres all the riffs not including both guitar parts...btw you
finish on a G# power chord and slide out or something....OR you could burst into a big 
Kirk Hammett style solo and sweep pick the pentationic
scale to glory...the choice is yours :) Hope this tab helped!
Related for This Mortal Soil tab